  0
SECTION
  2
HEADER
  9
$ACADVER
  1
AC1018
  9
$ACADMAINTVER
 70
    39
  9
$DWGCODEPAGE
  3
ANSI_1252
  9
$LASTSAVEDBY
  1
fottrem
  9
$INSBASE
 10
0.0
 20
0.0
 30
0.0
  9
$EXTMIN
 10
14.72598008109453
 20
7.262363086538221
 30
0.0
  9
$EXTMAX
 10
24.82240953188269
 20
17.26250711267273
 30
0.0
  9
$LIMMIN
 10
0.0
 20
0.0
  9
$LIMMAX
 10
12.0
 20
9.0
  9
$ORTHOMODE
 70
     0
  9
$REGENMODE
 70
     1
  9
$FILLMODE
 70
     1
  9
$QTEXTMODE
 70
     0
  9
$MIRRTEXT
 70
     0
  9
$LTSCALE
 40
1.0
  9
$ATTMODE
 70
     1
  9
$TEXTSIZE
 40
0.2
  9
$TRACEWID
 40
0.05
  9
$TEXTSTYLE
  7
Standard
  9
$CLAYER
  8
0
  9
$CELTYPE
  6
ByLayer
  9
$CECOLOR
 62
   256
  9
$CELTSCALE
 40
1.0
  9
$DISPSILH
 70
     0
  9
$DIMSCALE
 40
1.0
  9
$DIMASZ
 40
0.18
  9
$DIMEXO
 40
0.0625
  9
$DIMDLI
 40
0.38
  9
$DIMRND
 40
0.0
  9
$DIMDLE
 40
0.0
  9
$DIMEXE
 40
0.18
  9
$DIMTP
 40
0.0
  9
$DIMTM
 40
0.0
  9
$DIMTXT
 40
0.18
  9
$DIMCEN
 40
0.09
  9
$DIMTSZ
 40
0.0
  9
$DIMTOL
 70
     0
  9
$DIMLIM
 70
     0
  9
$DIMTIH
 70
     1
  9
$DIMTOH
 70
     1
  9
$DIMSE1
 70
     0
  9
$DIMSE2
 70
     0
  9
$DIMTAD
 70
     0
  9
$DIMZIN
 70
     0
  9
$DIMBLK
  1

  9
$DIMASO
 70
     1
  9
$DIMSHO
 70
     1
  9
$DIMPOST
  1

  9
$DIMAPOST
  1

  9
$DIMALT
 70
     0
  9
$DIMALTD
 70
     2
  9
$DIMALTF
 40
25.4
  9
$DIMLFAC
 40
1.0
  9
$DIMTOFL
 70
     0
  9
$DIMTVP
 40
0.0
  9
$DIMTIX
 70
     0
  9
$DIMSOXD
 70
     0
  9
$DIMSAH
 70
     0
  9
$DIMBLK1
  1

  9
$DIMBLK2
  1

  9
$DIMSTYLE
  2
Standard
  9
$DIMCLRD
 70
     0
  9
$DIMCLRE
 70
     0
  9
$DIMCLRT
 70
     0
  9
$DIMTFAC
 40
1.0
  9
$DIMGAP
 40
0.09
  9
$DIMJUST
 70
     0
  9
$DIMSD1
 70
     0
  9
$DIMSD2
 70
     0
  9
$DIMTOLJ
 70
     1
  9
$DIMTZIN
 70
     0
  9
$DIMALTZ
 70
     0
  9
$DIMALTTZ
 70
     0
  9
$DIMUPT
 70
     0
  9
$DIMDEC
 70
     4
  9
$DIMTDEC
 70
     4
  9
$DIMALTU
 70
     2
  9
$DIMALTTD
 70
     2
  9
$DIMTXSTY
  7
Standard
  9
$DIMAUNIT
 70
     0
  9
$DIMADEC
 70
     0
  9
$DIMALTRND
 40
0.0
  9
$DIMAZIN
 70
     0
  9
$DIMDSEP
 70
    46
  9
$DIMATFIT
 70
     3
  9
$DIMFRAC
 70
     0
  9
$DIMLDRBLK
  1

  9
$DIMLUNIT
 70
     2
  9
$DIMLWD
 70
    -2
  9
$DIMLWE
 70
    -2
  9
$DIMTMOVE
 70
     0
  9
$LUNITS
 70
     2
  9
$LUPREC
 70
     4
  9
$SKETCHINC
 40
0.1
  9
$FILLETRAD
 40
0.0
  9
$AUNITS
 70
     0
  9
$AUPREC
 70
     0
  9
$MENU
  1
.
  9
$ELEVATION
 40
0.0
  9
$PELEVATION
 40
0.0
  9
$THICKNESS
 40
0.0
  9
$LIMCHECK
 70
     0
  9
$CHAMFERA
 40
0.0
  9
$CHAMFERB
 40
0.0
  9
$CHAMFERC
 40
0.0
  9
$CHAMFERD
 40
0.0
  9
$SKPOLY
 70
     0
  9
$TDCREATE
 40
2453354.092125822
  9
$TDUCREATE
 40
2453353.717125822
  9
$TDUPDATE
 40
2454792.423556597
  9
$TDUUPDATE
 40
2454792.048556597
  9
$TDINDWG
 40
0.0460416204
  9
$TDUSRTIMER
 40
0.0460179051
  9
$USRTIMER
 70
     1
  9
$ANGBASE
 50
0.0
  9
$ANGDIR
 70
     0
  9
$PDMODE
 70
     0
  9
$PDSIZE
 40
0.0
  9
$PLINEWID
 40
0.0
  9
$SPLFRAME
 70
     0
  9
$SPLINETYPE
 70
     6
  9
$SPLINESEGS
 70
     8
  9
$HANDSEED
  5
4E8
  9
$SURFTAB1
 70
     6
  9
$SURFTAB2
 70
     6
  9
$SURFTYPE
 70
     6
  9
$SURFU
 70
     6
  9
$SURFV
 70
     6
  9
$UCSBASE
  2

  9
$UCSNAME
  2

  9
$UCSORG
 10
0.0
 20
0.0
 30
0.0
  9
$UCSXDIR
 10
1.0
 20
0.0
 30
0.0
  9
$UCSYDIR
 10
0.0
 20
1.0
 30
0.0
  9
$UCSORTHOREF
  2

  9
$UCSORTHOVIEW
 70
     0
  9
$UCSORGTOP
 10
0.0
 20
0.0
 30
0.0
  9
$UCSORGBOTTOM
 10
0.0
 20
0.0
 30
0.0
  9
$UCSORGLEFT
 10
0.0
 20
0.0
 30
0.0
  9
$UCSORGRIGHT
 10
0.0
 20
0.0
 30
0.0
  9
$UCSORGFRONT
 10
0.0
 20
0.0
 30
0.0
  9
$UCSORGBACK
 10
0.0
 20
0.0
 30
0.0
  9
$PUCSBASE
  2

  9
$PUCSNAME
  2

  9
$PUCSORG
 10
0.0
 20
0.0
 30
0.0
  9
$PUCSXDIR
 10
1.0
 20
0.0
 30
0.0
  9
$PUCSYDIR
 10
0.0
 20
1.0
 30
0.0
  9
$PUCSORTHOREF
  2

  9
$PUCSORTHOVIEW
 70
     0
  9
$PUCSORGTOP
 10
0.0
 20
0.0
 30
0.0
  9
$PUCSORGBOTTOM
 10
0.0
 20
0.0
 30
0.0
  9
$PUCSORGLEFT
 10
0.0
 20
0.0
 30
0.0
  9
$PUCSORGRIGHT
 10
0.0
 20
0.0
 30
0.0
  9
$PUCSORGFRONT
 10
0.0
 20
0.0
 30
0.0
  9
$PUCSORGBACK
 10
0.0
 20
0.0
 30
0.0
  9
$USERI1
 70
     0
  9
$USERI2
 70
     0
  9
$USERI3
 70
     0
  9
$USERI4
 70
     0
  9
$USERI5
 70
     0
  9
$USERR1
 40
0.0
  9
$USERR2
 40
0.0
  9
$USERR3
 40
0.0
  9
$USERR4
 40
0.0
  9
$USERR5
 40
0.0
  9
$WORLDVIEW
 70
     1
  9
$SHADEDGE
 70
     3
  9
$SHADEDIF
 70
    70
  9
$TILEMODE
 70
     1
  9
$MAXACTVP
 70
    64
  9
$PINSBASE
 10
0.0
 20
0.0
 30
0.0
  9
$PLIMCHECK
 70
     0
  9
$PEXTMIN
 10
0.0
 20
0.0
 30
0.0
  9
$PEXTMAX
 10
0.0
 20
0.0
 30
0.0
  9
$PLIMMIN
 10
0.0
 20
0.0
  9
$PLIMMAX
 10
12.0
 20
9.0
  9
$UNITMODE
 70
     0
  9
$VISRETAIN
 70
     1
  9
$PLINEGEN
 70
     0
  9
$PSLTSCALE
 70
     1
  9
$TREEDEPTH
 70
  3020
  9
$CMLSTYLE
  2
Standard
  9
$CMLJUST
 70
     0
  9
$CMLSCALE
 40
1.0
  9
$PROXYGRAPHICS
 70
     1
  9
$MEASUREMENT
 70
     0
  9
$CELWEIGHT
370
    -1
  9
$ENDCAPS
280
     0
  9
$JOINSTYLE
280
     0
  9
$LWDISPLAY
290
     0
  9
$INSUNITS
 70
     1
  9
$HYPERLINKBASE
  1

  9
$STYLESHEET
  1

  9
$XEDIT
290
     0
  9
$CEPSNTYPE
380
     0
  9
$PSTYLEMODE
290
     0
  9
$FINGERPRINTGUID
  2
{8BAE0D3F-6380-4E3D-B0D1-267E31F469C1}
  9
$VERSIONGUID
  2
{6F1AD05E-3764-4268-ADD0-261F181DCA83}
  9
$EXTNAMES
290
     1
  9
$PSVPSCALE
 40
0.0
  9
$OLESTARTUP
290
     0
  9
$SORTENTS
280
   127
  9
$INDEXCTL
280
     0
  9
$HIDETEXT
280
     1
  9
$XCLIPFRAME
290
     0
  9
$HALOGAP
280
     0
  9
$OBSCOLOR
 70
   257
  9
$OBSLTYPE
280
     0
  9
$INTERSECTIONDISPLAY
280
     0
  9
$INTERSECTIONCOLOR
 70
   257
  9
$DIMASSOC
280
     2
  9
$PROJECTNAME
  1

  0
ENDSEC
  0
SECTION
  2
CLASSES
  0
CLASS
  1
ACDBDICTIONARYWDFLT
  2
AcDbDictionaryWithDefault
  3
ObjectDBX Classes
 90
        0
 91
        3
280
     0
281
     0
  0
CLASS
  1
ACDBPLACEHOLDER
  2
AcDbPlaceHolder
  3
ObjectDBX Classes
 90
        0
 91
        1
280
     0
281
     0
  0
CLASS
  1
LAYOUT
  2
AcDbLayout
  3
ObjectDBX Classes
 90
        0
 91
        1
280
     0
281
     0
  0
CLASS
  1
DICTIONARYVAR
  2
AcDbDictionaryVar
  3
ObjectDBX Classes
 90
        0
 91
        3
280
     0
281
     0
  0
CLASS
  1
TABLESTYLE
  2
AcDbTableStyle
  3
ObjectDBX Classes
 90
     2047
 91
        3
280
     0
281
     0
  0
ENDSEC
  0
SECTION
  2
TABLES
  0
TABLE
  2
VPORT
  5
8
330
0
100
AcDbSymbolTable
 70
     2
  0
VPORT
  5
97
330
8
100
AcDbSymbolTableRecord
100
AcDbViewportTableRecord
  2
*Active
 70
     0
 10
0.0
 20
0.0
 11
1.0
 21
1.0
 12
22.67110460610956
 22
10.88812359546361
 13
0.0
 23
0.0
 14
0.5
 24
0.5
 15
0.5
 25
0.5
 16
0.0
 26
0.0
 36
1.0
 17
0.0
 27
0.0
 37
0.0
 40
19.80122826329412
 41
2.031468531468532
 42
50.0
 43
0.0
 44
0.0
 50
0.0
 51
0.0
 71
    16
 72
  1000
 73
     1
 74
     1
 75
     0
 76
     0
 77
     0
 78
     0
281
     0
 65
     0
110
0.0
120
0.0
130
0.0
111
1.0
121
0.0
131
0.0
112
0.0
122
1.0
132
0.0
 79
     0
146
0.0
  0
ENDTAB
  0
TABLE
  2
LTYPE
  5
5
330
0
100
AcDbSymbolTable
 70
     1
  0
LTYPE
  5
14
330
5
100
AcDbSymbolTableRecord
100
AcDbLinetypeTableRecord
  2
ByBlock
 70
     0
  3

 72
    65
 73
     0
 40
0.0
  0
LTYPE
  5
15
330
5
100
AcDbSymbolTableRecord
100
AcDbLinetypeTableRecord
  2
ByLayer
 70
     0
  3

 72
    65
 73
     0
 40
0.0
  0
LTYPE
  5
16
330
5
100
AcDbSymbolTableRecord
100
AcDbLinetypeTableRecord
  2
Continuous
 70
     0
  3
Solid line
 72
    65
 73
     0
 40
0.0
  0
ENDTAB
  0
TABLE
  2
LAYER
  5
2
330
0
100
AcDbSymbolTable
 70
     2
  0
LAYER
  5
10
330
2
100
AcDbSymbolTableRecord
100
AcDbLayerTableRecord
  2
0
 70
     0
 62
     7
  6
Continuous
370
    -3
390
F
  0
LAYER
  5
2D4
330
2
100
AcDbSymbolTableRecord
100
AcDbLayerTableRecord
  2
DEFPOINTS
 70
     0
 62
     7
  6
Continuous
290
     0
370
    -3
390
F
  0
ENDTAB
  0
TABLE
  2
STYLE
  5
3
330
0
100
AcDbSymbolTable
 70
     1
  0
STYLE
  5
11
330
3
100
AcDbSymbolTableRecord
100
AcDbTextStyleTableRecord
  2
Standard
 70
     0
 40
0.0
 41
1.0
 50
0.0
 71
     0
 42
0.2
  3
txt
  4

  0
ENDTAB
  0
TABLE
  2
VIEW
  5
6
330
0
100
AcDbSymbolTable
 70
     0
  0
ENDTAB
  0
TABLE
  2
UCS
  5
7
330
0
100
AcDbSymbolTable
 70
     0
  0
ENDTAB
  0
TABLE
  2
APPID
  5
9
330
0
100
AcDbSymbolTable
 70
     1
  0
APPID
  5
12
330
9
100
AcDbSymbolTableRecord
100
AcDbRegAppTableRecord
  2
ACAD
 70
     0
  0
ENDTAB
  0
TABLE
  2
DIMSTYLE
  5
A
330
0
100
AcDbSymbolTable
 70
     1
100
AcDbDimStyleTable
  0
DIMSTYLE
105
27
330
A
100
AcDbSymbolTableRecord
100
AcDbDimStyleTableRecord
  2
Standard
 70
     0
340
11
  0
ENDTAB
  0
TABLE
  2
BLOCK_RECORD
  5
1
330
0
100
AcDbSymbolTable
 70
     1
  0
BLOCK_RECORD
  5
1F
330
1
100
AcDbSymbolTableRecord
100
AcDbBlockTableRecord
  2
*Model_Space
340
22
  0
BLOCK_RECORD
  5
73
330
1
100
AcDbSymbolTableRecord
100
AcDbBlockTableRecord
  2
*Paper_Space
340
74
  0
BLOCK_RECORD
  5
9B
330
1
100
AcDbSymbolTableRecord
100
AcDbBlockTableRecord
  2
*Paper_Space0
340
9C
  0
ENDTAB
  0
ENDSEC
  0
SECTION
  2
BLOCKS
  0
BLOCK
  5
20
330
1F
100
AcDbEntity
  8
0
100
AcDbBlockBegin
  2
*Model_Space
 70
     0
 71
     0
 10
0.0
 20
0.0
 30
0.0
  3
*Model_Space
  1

  0
ENDBLK
  5
21
330
1F
100
AcDbEntity
  8
0
100
AcDbBlockEnd
  0
BLOCK
  5
75
330
73
100
AcDbEntity
 67
     1
  8
0
100
AcDbBlockBegin
  2
*Paper_Space
 70
     0
 71
     0
 10
0.0
 20
0.0
 30
0.0
  3
*Paper_Space
  1

  0
ENDBLK
  5
76
330
73
100
AcDbEntity
 67
     1
  8
0
100
AcDbBlockEnd
  0
BLOCK
  5
4E6
330
9B
100
AcDbEntity
  8
0
100
AcDbBlockBegin
  2
*Paper_Space0
 70
     0
 71
     0
 10
0.0
 20
0.0
 30
0.0
  3
*Paper_Space0
  1

  0
ENDBLK
  5
4E7
330
9B
100
AcDbEntity
  8
0
100
AcDbBlockEnd
  0
ENDSEC
  0
SECTION
  2
ENTITIES
  0
LINE
  5
9D
330
1F
100
AcDbEntity
  8
0
  6
Continuous
 62
     7
370
    15
100
AcDbLine
 10
21.19515705003451
 20
11.3213955195884
 30
0.0
 11
22.07225709021606
 21
11.3213955195884
 31
0.0
  0
LINE
  5
9E
330
1F
100
AcDbEntity
  8
0
  6
Continuous
 62
     7
370
    15
100
AcDbLine
 10
21.19515705003451
 20
15.82725250145416
 30
0.0
 11
21.19515705003451
 21
11.3213955195884
 31
0.0
  0
LINE
  5
9F
330
1F
100
AcDbEntity
  8
0
  6
Continuous
 62
     7
370
    15
100
AcDbLine
 10
19.91335733428979
 20
15.82725250145416
 30
0.0
 11
21.19515705003451
 21
15.82725250145416
 31
0.0
  0
LINE
  5
A0
330
1F
100
AcDbEntity
  8
0
  6
Continuous
 62
     7
370
    15
100
AcDbLine
 10
16.87886199794704
 20
11.25519929017363
 30
0.0
 11
19.91335733428979
 21
15.82725250145416
 31
0.0
  0
LINE
  5
A1
330
1F
100
AcDbEntity
  8
0
  6
Continuous
 62
     7
370
    15
100
AcDbLine
 10
16.87886199794704
 20
10.16747488350254
 30
0.0
 11
16.87886199794704
 21
11.25519929017363
 31
0.0
  0
LINE
  5
A2
330
1F
100
AcDbEntity
  8
0
  6
Continuous
 62
     7
370
    15
100
AcDbLine
 10
19.94495098929438
 20
10.16747488350254
 30
0.0
 11
16.87886199794704
 21
10.16747488350254
 31
0.0
  0
LINE
  5
A3
330
1F
100
AcDbEntity
  8
0
  6
Continuous
 62
     7
370
    15
100
AcDbLine
 10
19.94495098929438
 20
8.816470018812874
 30
0.0
 11
19.94495098929438
 21
10.16747488350254
 31
0.0
  0
LINE
  5
A4
330
1F
100
AcDbEntity
  8
0
  6
Continuous
 62
     7
370
    15
100
AcDbLine
 10
21.19515705003451
 20
8.816470018812874
 30
0.0
 11
19.94495098929438
 21
8.816470018812874
 31
0.0
  0
LINE
  5
A5
330
1F
100
AcDbEntity
  8
0
  6
Continuous
 62
     7
370
    15
100
AcDbLine
 10
21.19515705003451
 20
10.16747488350254
 30
0.0
 11
21.19515705003451
 21
8.816470018812874
 31
0.0
  0
LINE
  5
A6
330
1F
100
AcDbEntity
  8
0
  6
Continuous
 62
     7
370
    15
100
AcDbLine
 10
22.07225709021606
 20
10.16747488350254
 30
0.0
 11
21.19515705003451
 21
10.16747488350254
 31
0.0
  0
LINE
  5
A7
330
1F
100
AcDbEntity
  8
0
  6
Continuous
 62
     7
370
    15
100
AcDbLine
 10
22.07225709021606
 20
11.3213955195884
 30
0.0
 11
22.07225709021606
 21
10.16747488350254
 31
0.0
  0
SPLINE
  5
A8
330
1F
100
AcDbEntity
  8
0
  6
Continuous
 62
     7
370
    15
100
AcDbSpline
210
0.0
220
0.0
230
1.0
 70
    12
 71
     3
 72
    23
 73
    19
 74
     0
 42
0.00000001
 43
0.00000001
 40
0.0
 40
0.0
 40
0.0
 40
0.0
 40
0.0653191317632199
 40
0.1292316658994808
 40
0.192204934089882
 40
0.2546521231351335
 40
0.3164700138539618
 40
0.3774536374499657
 40
0.4387263283013594
 40
0.4994767795004991
 40
0.560270535507419
 40
0.6212865164738546
 40
0.6828133185583094
 40
0.7444667835057438
 40
0.8069064465263766
 40
0.8702042522781595
 40
0.9345184701711651
 40
1.0
 40
1.0
 40
1.0
 40
1.0
 10
22.84705386672321
 20
15.38193241240674
 30
0.0
 41
1.0
 10
22.79285037324362
 20
15.43457622302867
 30
0.0
 41
1.0
 10
22.68561061712839
 20
15.53873020000808
 30
0.0
 41
1.0
 10
22.51810544779313
 20
15.68509326327622
 30
0.0
 41
1.0
 10
22.34596238632476
 20
15.82056700615672
 30
0.0
 41
1.0
 10
22.1702771697374
 20
15.94735751121945
 30
0.0
 41
1.0
 10
21.98970461226284
 20
16.06289047228324
 30
0.0
 41
1.0
 10
21.80504752469377
 20
16.16903968390773
 30
0.0
 41
1.0
 10
21.61620169183055
 20
16.26487195618915
 30
0.0
 41
1.0
 10
21.42302723503863
 20
16.35110017164662
 30
0.0
 41
1.0
 10
21.22565977516247
 20
16.42650715046787
 30
0.0
 41
1.0
 10
21.02350256619001
 20
16.49080047144179
 30
0.0
 41
1.0
 10
20.81786801298085
 20
16.54686755973218
 30
0.0
 41
1.0
 10
20.60779459973592
 20
16.59159483991767
 30
0.0
 41
1.0
 10
20.39408574936366
 20
16.62823440486457
 30
0.0
 41
1.0
 10
20.17562651094583
 20
16.65346657903594
 30
0.0
 41
1.0
 10
19.95270481545149
 20
16.66904605592773
 30
0.0
 41
1.0
 10
19.8025546107733
 20
16.67051390291119
 30
0.0
 41
1.0
 10
19.72680432404184
 20
16.6712544269092
 30
0.0
 41
1.0
  0
SPLINE
  5
A9
330
1F
100
AcDbEntity
  8
0
  6
Continuous
 62
     7
370
    15
100
AcDbSpline
210
0.0
220
0.0
230
1.0
 70
    12
 71
     3
 72
    15
 73
    11
 74
     0
 42
0.00000001
 43
0.00000001
 40
0.0
 40
0.0
 40
0.0
 40
0.0
 40
0.1277757446836258
 40
0.2518920836048984
 40
0.3743349739105842
 40
0.4954667520938102
 40
0.6177438299247714
 40
0.7416753459972352
 40
0.8687061433993222
 40
1.0
 40
1.0
 40
1.0
 40
1.0
 10
19.72680432404184
 20
16.6712544269092
 30
0.0
 41
1.0
 10
19.58163344975467
 20
16.66791468861563
 30
0.0
 41
1.0
 10
19.29544929098911
 20
16.66133085973983
 30
0.0
 41
1.0
 10
18.87433303610474
 20
16.59645701962758
 30
0.0
 41
1.0
 10
18.46848977465948
 20
16.49652183348048
 30
0.0
 41
1.0
 10
18.07676258129474
 20
16.35577247515149
 30
0.0
 41
1.0
 10
17.7013357176098
 20
16.17232359085927
 30
0.0
 41
1.0
 10
17.34009017986257
 20
15.94973179271352
 30
0.0
 41
1.0
 10
16.99297232016476
 20
15.68756397183575
 30
0.0
 41
1.0
 10
16.78065936096968
 20
15.48492430073927
 30
0.0
 41
1.0
 10
16.67275101080993
 20
15.38193241240674
 30
0.0
 41
1.0
  0
SPLINE
  5
AA
330
1F
100
AcDbEntity
  8
0
  6
Continuous
 62
     7
370
    15
100
AcDbSpline
210
0.0
220
0.0
230
1.0
 70
    12
 71
     3
 72
    23
 73
    19
 74
     0
 42
0.00000001
 43
0.00000001
 40
0.0
 40
0.0
 40
0.0
 40
0.0
 40
0.0653031979660882
 40
0.1292001414273741
 40
0.1921580480651503
 40
0.2545900038882989
 40
0.3161598056724214
 40
0.3777204518687279
 40
0.4383957295665291
 40
0.4991313614418535
 40
0.559910287561283
 40
0.6210452213385819
 40
0.6824454237535265
 40
0.7445998894386939
 40
0.8069535493188548
 40
0.8702359143510761
 40
0.9345344435833022
 40
0.9999999999999999
 40
0.9999999999999999
 40
0.9999999999999999
 40
0.9999999999999999
 10
22.84705386672321
 20
9.1399288672838
 30
0.0
 41
1.0
 10
22.89969467651852
 20
9.194134238610813
 30
0.0
 41
1.0
 10
23.00384271646502
 20
9.301377709982738
 30
0.0
 41
1.0
 10
23.15024935972637
 20
9.46885560797479
 30
0.0
 41
1.0
 10
23.28556104099388
 20
9.641100083819827
 30
0.0
 41
1.0
 10
23.41278992507987
 20
9.816193525685938
 30
0.0
 41
1.0
 10
23.52637348296266
 20
9.998474950963185
 30
0.0
 41
1.0
 10
23.63402281125457
 20
10.18196478821521
 30
0.0
 41
1.0
 10
23.72843900350369
 20
10.37155817468322
 30
0.0
 41
1.0
 10
23.81497116658956
 20
10.56386111432392
 30
0.0
 41
1.0
 10
23.88948622277756
 20
10.76168427539995
 30
0.0
 41
1.0
 10
23.95700678948767
 20
10.96287580874862
 30
0.0
 41
1.0
 10
24.0094551536154
 20
11.17011491203652
 30
0.0
 41
1.0
 10
24.05771560716925
 20
11.37979708251844
 30
0.0
 41
1.0
 10
24.09115911876742
 20
11.59461035155761
 30
0.0
 41
1.0
 10
24.11727511814425
 20
11.81282586770116
 30
0.0
 41
1.0
 10
24.13261382548607
 20
12.03579132544696
 30
0.0
 41
1.0
 10
24.13411439105043
 20
12.18593558319891
 30
0.0
 41
1.0
 10
24.1348714214654
 20
12.26168286972534
 30
0.0
 41
1.0
  0
SPLINE
  5
AB
330
1F
100
AcDbEntity
  8
0
  6
Continuous
 62
     7
370
    15
100
AcDbSpline
210
0.0
220
0.0
230
1.0
 70
    12
 71
     3
 72
    15
 73
    11
 74
     0
 42
0.00000001
 43
0.00000001
 40
0.0
 40
0.0
 40
0.0
 40
0.0
 40
0.1310434001598443
 40
0.2581205488011094
 40
0.3817211468657653
 40
0.5038503702941185
 40
0.6255921350628543
 40
0.7480797025634431
 40
0.872177632259414
 40
1.0
 40
1.0
 40
1.0
 40
1.0
 10
16.67275101080993
 20
9.1399288672838
 30
0.0
 41
1.0
 10
16.78071431728042
 20
9.037485474641676
 30
0.0
 41
1.0
 10
16.99337323701672
 20
8.835699312976406
 30
0.0
 41
1.0
 10
17.33991877653395
 20
8.574228845884038
 30
0.0
 41
1.0
 10
17.69963369522333
 20
8.350192736410813
 30
0.0
 41
1.0
 10
18.07640721961336
 20
8.16953694107562
 30
0.0
 41
1.0
 10
18.46771179434443
 20
8.02670834507702
 30
0.0
 41
1.0
 10
18.87423382385024
 20
7.926520278542115
 30
0.0
 41
1.0
 10
19.29558462909064
 20
7.864023233446296
 30
0.0
 41
1.0
 10
19.58165465433245
 20
7.857118950763589
 30
0.0
 41
1.0
 10
19.72680432404184
 20
7.853615772301968
 30
0.0
 41
1.0
  0
SPLINE
  5
AC
330
1F
100
AcDbEntity
  8
0
  6
Continuous
 62
     7
370
    15
100
AcDbSpline
210
0.0
220
0.0
230
1.0
 70
    12
 71
     3
 72
    23
 73
    19
 74
     0
 42
0.00000001
 43
0.00000001
 40
0.0
 40
0.0
 40
0.0
 40
0.0
 40
0.066547072884556
 40
0.1319215572224123
 40
0.1962241963187246
 40
0.2596384302251789
 40
0.3223268435629763
 40
0.3839258402782326
 40
0.4449929705936608
 40
0.5062224623701147
 40
0.5669791324623121
 40
0.6276563810189446
 40
0.6886072740670408
 40
0.7494090591568815
 40
0.8111843270784457
 40
0.8731246798921528
 40
0.936329822491105
 40
1.0
 40
1.0
 40
1.0
 40
1.0
 10
15.41351819151179
 20
12.26168286972534
 30
0.0
 41
1.0
 10
15.41422465342628
 20
12.18492681061167
 30
0.0
 41
1.0
 10
15.4156251290872
 20
12.03276716773574
 30
0.0
 41
1.0
 10
15.43170196648123
 20
11.80694194793122
 30
0.0
 41
1.0
 10
15.45505881443335
 20
11.58544368327968
 30
0.0
 41
1.0
 10
15.48974295371081
 20
11.36850519245449
 30
0.0
 41
1.0
 10
15.53497040028416
 20
11.15673982607298
 30
0.0
 41
1.0
 10
15.58931064305729
 20
10.94993333126353
 30
0.0
 41
1.0
 10
15.65260356482936
 20
10.74745391006367
 30
0.0
 41
1.0
 10
15.72571624702875
 20
10.54928572689449
 30
0.0
 41
1.0
 10
15.81082873212989
 20
10.35649528473659
 30
0.0
 41
1.0
 10
15.90381694493876
 20
10.16775091618381
 30
0.0
 41
1.0
 10
16.0076707948528
 20
9.984656527491783
 30
0.0
 41
1.0
 10
16.12134380056177
 20
9.80604410875558
 30
0.0
 41
1.0
 10
16.24405967706345
 20
9.632081946339309
 30
0.0
 41
1.0
 10
16.37767291212357
 20
9.46284732137933
 30
0.0
 41
1.0
 10
16.51946520458618
 20
9.29743850352801
 30
0.0
 41
1.0
 10
16.62153104175303
 20
9.192560215830262
 30
0.0
 41
1.0
 10
16.67275101080993
 20
9.1399288672838
 30
0.0
 41
1.0
  0
SPLINE
  5
AD
330
1F
100
AcDbEntity
  8
0
  6
Continuous
 62
     7
370
    15
100
AcDbSpline
210
0.0
220
0.0
230
1.0
 70
    12
 71
     3
 72
    23
 73
    19
 74
     0
 42
0.00000001
 43
0.00000001
 40
0.0
 40
0.0
 40
0.0
 40
0.0
 40
0.0655038910809703
 40
0.129840071601391
 40
0.1931594928865577
 40
0.2555496651978124
 40
0.3176482047892688
 40
0.3791960176280271
 40
0.4399548317655098
 40
0.5011747468309721
 40
0.5619459436687722
 40
0.6226567509874514
 40
0.6840377693522707
 40
0.7455121871779312
 40
0.8077287532919241
 40
0.8709931910868051
 40
0.9349716687019327
 40
1.0
 40
1.0
 40
1.0
 40
1.0
 10
19.72680432404184
 20
7.853615772301968
 30
0.0
 41
1.0
 10
19.80255255073871
 20
7.854368631854689
 30
0.0
 41
1.0
 10
19.95269867207117
 20
7.855860930047262
 30
0.0
 41
1.0
 10
20.17565041609716
 20
7.871260475339292
 30
0.0
 41
1.0
 10
20.3939168083449
 20
7.897150773889265
 30
0.0
 41
1.0
 10
20.60843800163842
 20
7.931405356562982
 30
0.0
 41
1.0
 10
20.81883314223512
 20
7.976603135453664
 30
0.0
 41
1.0
 10
21.02493621232063
 20
8.031746007800034
 30
0.0
 41
1.0
 10
21.22611712116798
 20
8.099478516385583
 30
0.0
 41
1.0
 10
21.42424015477857
 20
8.173197295773464
 30
0.0
 41
1.0
 10
21.6170084336688
 20
8.259931329786143
 30
0.0
 41
1.0
 10
21.80593842981462
 20
8.354948648165808
 30
0.0
 41
1.0
 10
21.9908355007967
 20
8.459482275805023
 30
0.0
 41
1.0
 10
22.16982866243174
 20
8.57687324298204
 30
0.0
 41
1.0
 10
22.34716543538568
 20
8.700711602011944
 30
0.0
 41
1.0
 10
22.51700683307833
 20
8.839189423506514
 30
0.0
 41
1.0
 10
22.68757166204431
 20
8.981980342724908
 30
0.0
 41
1.0
 10
22.7936054983982
 20
9.086994491727577
 30
0.0
 41
1.0
 10
22.84705386672321
 20
9.1399288672838
 30
0.0
 41
1.0
  0
SPLINE
  5
AE
330
1F
100
AcDbEntity
  8
0
  6
Continuous
 62
     7
370
    15
100
AcDbSpline
210
0.0
220
0.0
230
1.0
 70
    12
 71
     3
 72
    23
 73
    19
 74
     0
 42
0.00000001
 43
0.00000001
 40
0.0
 40
0.0
 40
0.0
 40
0.0
 40
0.0654890124593455
 40
0.1298105795931248
 40
0.1931156184393986
 40
0.2554916193823325
 40
0.3176683547598031
 40
0.3790905566175883
 40
0.4398355699351363
 40
0.501041579445721
 40
0.561798972650964
 40
0.6224959900540276
 40
0.6840786931795292
 40
0.7453046672648752
 40
0.8077589922039149
 40
0.8707394564036203
 40
0.9349864393044179
 40
1.0
 40
1.0
 40
1.0
 40
1.0
 10
24.1348714214654
 20
12.26168286972534
 30
0.0
 41
1.0
 10
24.13411428466387
 20
12.33743012016473
 30
0.0
 41
1.0
 10
24.13261350822298
 20
12.48757430638535
 30
0.0
 41
1.0
 10
24.11727635268009
 20
12.71054029051503
 30
0.0
 41
1.0
 10
24.09115459633265
 20
12.92875385384337
 30
0.0
 41
1.0
 10
24.057732202301
 20
13.1435742861475
 30
0.0
 41
1.0
 10
24.00939372211974
 20
13.35322998930848
 30
0.0
 41
1.0
 10
23.95734884862842
 20
13.56010436304025
 30
0.0
 41
1.0
 10
23.8888245089649
 20
13.76094495261827
 30
0.0
 41
1.0
 10
23.8153751495036
 20
13.9591537794082
 30
0.0
 41
1.0
 10
23.72839955404309
 20
14.15179796752985
 30
0.0
 41
1.0
 10
23.6339699172651
 20
14.3413627413112
 30
0.0
 41
1.0
 10
23.52684308922762
 20
14.52469064738254
 30
0.0
 41
1.0
 10
23.41227341724955
 20
14.70583453072237
 30
0.0
 41
1.0
 10
23.28571215242929
 20
14.8808782211851
 30
0.0
 41
1.0
 10
23.14967763128277
 20
15.05300900946254
 30
0.0
 41
1.0
 10
23.00480499975135
 20
15.22186079581793
 30
0.0
 41
1.0
 10
22.89984506552612
 20
15.3283646669851
 30
0.0
 41
1.0
 10
22.84705386672321
 20
15.38193241240674
 30
0.0
 41
1.0
  0
SPLINE
  5
AF
330
1F
100
AcDbEntity
  8
0
  6
Continuous
 62
     7
370
    15
100
AcDbSpline
210
0.0
220
0.0
230
1.0
 70
    12
 71
     3
 72
    23
 73
    19
 74
     0
 42
0.00000001
 43
0.00000001
 40
0.0
 40
0.0
 40
0.0
 40
0.0
 40
0.0636935497010407
 40
0.1265933001269199
 40
0.188899037368052
 40
0.2503422640293609
 40
0.3115339545688691
 40
0.3725072216080469
 40
0.4328173344276195
 40
0.4935963072150989
 40
0.5548482752512832
 40
0.6159378222264309
 40
0.677980269960741
 40
0.7402662611151466
 40
0.8037037732613925
 40
0.8680300167152742
 40
0.933428498866065
 40
1.0
 40
1.0
 40
1.0
 40
1.0
 10
16.67275101080993
 20
15.38193241240674
 30
0.0
 41
1.0
 10
16.621645239472
 20
15.32920525424867
 30
0.0
 41
1.0
 10
16.52007061724462
 20
15.22440806538284
 30
0.0
 41
1.0
 10
16.37656087403092
 20
15.06042120713557
 30
0.0
 41
1.0
 10
16.24519981679556
 20
14.88992957674886
 30
0.0
 41
1.0
 10
16.12029753889594
 20
14.71703570545246
 30
0.0
 41
1.0
 10
16.0081705144982
 20
14.53737261531173
 30
0.0
 41
1.0
 10
15.90416013679505
 20
14.35445529454221
 30
0.0
 41
1.0
 10
15.81044868185781
 20
14.16655517355488
 30
0.0
 41
1.0
 10
15.72575998888398
 20
13.97405665465185
 30
0.0
 41
1.0
 10
15.65262995464482
 20
13.77590846993082
 30
0.0
 41
1.0
 10
15.58901619358197
 20
13.5730060798145
 30
0.0
 41
1.0
 10
15.53544268951954
 20
13.36601155060462
 30
0.0
 41
1.0
 10
15.48950448167474
 20
13.1544120619507
 30
0.0
 41
1.0
 10
15.45510292581759
 20
12.93791217768663
 30
0.0
 41
1.0
 10
15.43168992116267
 20
12.71642648899762
 30
0.0
 41
1.0
 10
15.415628224621
 20
12.4905978784886
 30
0.0
 41
1.0
 10
15.41422569136718
 20
12.33843869639854
 30
0.0
 41
1.0
 10
15.41351819151179
 20
12.26168286972534
 30
0.0
 41
1.0
  0
LINE
  5
B0
330
1F
100
AcDbEntity
  8
0
  6
Continuous
 62
     7
370
    15
100
AcDbLine
 10
18.12455467939193
 20
11.3213955195884
 30
0.0
 11
19.94495098929438
 21
11.3213955195884
 31
0.0
  0
LINE
  5
B1
330
1F
100
AcDbEntity
  8
0
  6
Continuous
 62
     7
370
    15
100
AcDbLine
 10
19.94495098929438
 20
11.3213955195884
 30
0.0
 11
19.94495098929438
 21
14.35889977546131
 31
0.0
  0
LINE
  5
B2
330
1F
100
AcDbEntity
  8
0
  6
Continuous
 62
     7
370
    15
100
AcDbLine
 10
19.94495098929438
 20
14.35889977546131
 30
0.0
 11
18.12455467939193
 21
11.3213955195884
 31
0.0
  0
SPLINE
  5
B3
330
1F
100
AcDbEntity
  8
0
  6
Continuous
 62
     7
370
    15
100
AcDbSpline
210
0.0
220
0.0
230
1.0
 70
    12
 71
     3
 72
    23
 73
    19
 74
     0
 42
0.00000001
 43
0.00000001
 40
0.0
 40
0.0
 40
0.0
 40
0.0
 40
0.0654166421255566
 40
0.1294240008511144
 40
0.1929450580924196
 40
0.2553791728914948
 40
0.3171893429145809
 40
0.3786066263311723
 40
0.4396847962513991
 40
0.5003400253361224
 40
0.5614612856065614
 40
0.6223511772413922
 40
0.6834975595262139
 40
0.7454495503935379
 40
0.8076477738412858
 40
0.8708433226229765
 40
0.9348118218160575
 40
1.0
 40
1.0
 40
1.0
 40
1.0
 10
14.72598008109453
 20
12.26168286972534
 30
0.0
 41
1.0
 10
14.72723607372544
 20
12.34746289346578
 30
0.0
 41
1.0
 10
14.72972100089464
 20
12.51717496527021
 30
0.0
 41
1.0
 10
14.74655440633374
 20
12.76972943796727
 30
0.0
 41
1.0
 10
14.7746589957451
 20
13.017340948805
 30
0.0
 41
1.0
 10
14.81598935494767
 20
13.2601447293729
 30
0.0
 41
1.0
 10
14.86647548319634
 20
13.49840886511545
 30
0.0
 41
1.0
 10
14.93039303552916
 20
13.73157847399955
 30
0.0
 41
1.0
 10
15.0033099227607
 20
13.96050676020778
 30
0.0
 41
1.0
 10
15.09001937167956
 20
14.18418730443526
 30
0.0
 41
1.0
 10
15.1873137125529
 20
14.40316791426896
 30
0.0
 41
1.0
 10
15.29633541950232
 20
14.61725687047292
 30
0.0
 41
1.0
 10
15.41488747412327
 20
14.82750430038582
 30
0.0
 41
1.0
 10
15.54745225092566
 20
15.03130728814509
 30
0.0
 41
1.0
 10
15.69144270910359
 20
15.23040930422017
 30
0.0
 41
1.0
 10
15.84414623350353
 20
15.42630294466486
 30
0.0
 41
1.0
 10
16.01013369241645
 20
15.61643297808523
 30
0.0
 41
1.0
 10
16.12854846321913
 20
15.73754161067437
 30
0.0
 41
1.0
 10
16.18831496802136
 20
15.79866776598578
 30
0.0
 41
1.0
  0
SPLINE
  5
B4
330
1F
100
AcDbEntity
  8
0
  6
Continuous
 62
     7
370
    15
100
AcDbSpline
210
0.0
220
0.0
230
1.0
 70
    12
 71
     3
 72
    23
 73
    19
 74
     0
 42
0.00000001
 43
0.00000001
 40
0.0
 40
0.0
 40
0.0
 40
0.0
 40
0.0640747890763309
 40
0.1275076568208507
 40
0.1901239365095843
 40
0.2519927833385503
 40
0.3133247125787091
 40
0.3741878801192655
 40
0.4349578183466697
 40
0.495567258595449
 40
0.5566593075486747
 40
0.6175379994275887
 40
0.6794009713862214
 40
0.7416925197199415
 40
0.8047668380013482
 40
0.8685425638990881
 40
0.9339312109166441
 40
1.0
 40
1.0
 40
1.0
 40
1.0
 10
24.82240953188269
 20
12.26168286972534
 30
0.0
 41
1.0
 10
24.82107812397073
 20
12.17741488428486
 30
0.0
 41
1.0
 10
24.81842864660867
 20
12.00972313650979
 30
0.0
 41
1.0
 10
24.80252920284178
 20
11.76000464829817
 30
0.0
 41
1.0
 10
24.77140094042561
 20
11.5147212492577
 30
0.0
 41
1.0
 10
24.73163141393313
 20
11.27348231649323
 30
0.0
 41
1.0
 10
24.67811665150347
 20
11.03728929109449
 30
0.0
 41
1.0
 10
24.61598562727078
 20
10.8046749418786
 30
0.0
 41
1.0
 10
24.53815648172278
 20
10.5778226429317
 30
0.0
 41
1.0
 10
24.45107900497943
 20
10.35410119011498
 30
0.0
 41
1.0
 10
24.35181695301736
 20
10.13532408967578
 30
0.0
 41
1.0
 10
24.24170955158078
 20
9.919928003323378
 30
0.0
 41
1.0
 10
24.11792026123992
 20
9.710275692839565
 30
0.0
 41
1.0
 10
23.98422482540443
 20
9.50337312210006
 30
0.0
 41
1.0
 10
23.83778010204456
 20
9.302144864196821
 30
0.0
 41
1.0
 10
23.68075583299893
 20
9.103897530736047
 30
0.0
 41
1.0
 10
23.51168366922809
 20
8.910435318096045
 30
0.0
 41
1.0
 10
23.39076007007455
 20
8.786823604812872
 30
0.0
 41
1.0
 10
23.32998544975155
 20
8.724697973465137
 30
0.0
 41
1.0
  0
SPLINE
  5
B5
330
1F
100
AcDbEntity
  8
0
  6
Continuous
 62
     7
370
    15
100
AcDbSpline
210
0.0
220
0.0
230
1.0
 70
    12
 71
     3
 72
    23
 73
    19
 74
     0
 42
0.00000001
 43
0.00000001
 40
0.0
 40
0.0
 40
0.0
 40
0.0
 40
0.0641626952787583
 40
0.1274089559763681
 40
0.189610368140581
 40
0.2514427715819597
 40
0.3130536289087759
 40
0.3735656648372954
 40
0.4345070515639665
 40
0.4953553588721108
 40
0.5561116103182528
 40
0.6173047621012157
 40
0.6792104565602886
 40
0.7415211218745541
 40
0.8044585638362916
 40
0.8684764408623062
 40
0.9337307724040194
 40
1.0
 40
1.0
 40
1.0
 40
1.0
 10
23.32998544975155
 20
8.724697973465137
 30
0.0
 41
1.0
 10
23.26893985215828
 20
8.66483737165468
 30
0.0
 41
1.0
 10
23.14772057010478
 20
8.545971155894108
 30
0.0
 41
1.0
 10
22.95610332386311
 20
8.38113629419856
 30
0.0
 41
1.0
 10
22.7599286710038
 20
8.22686222528792
 30
0.0
 41
1.0
 10
22.55801948396116
 20
8.083862355520441
 30
0.0
 41
1.0
 10
22.35150101418368
 20
7.951731525008153
 30
0.0
 41
1.0
 10
22.13897580964929
 20
7.831830547684456
 30
0.0
 41
1.0
 10
21.92116259339035
 20
7.72419608098115
 30
0.0
 41
1.0
 10
21.69859942788209
 20
7.625968961933978
 30
0.0
 41
1.0
 10
21.47068265100527
 20
7.539778287143619
 30
0.0
 41
1.0
 10
21.23686648158354
 20
7.466502293440985
 30
0.0
 41
1.0
 10
20.99808246397361
 20
7.40289404668373
 30
0.0
 41
1.0
 10
20.75382969656366
 20
7.352359278629057
 30
0.0
 41
1.0
 10
20.5050048351024
 20
7.311063307387403
 30
0.0
 41
1.0
 10
20.25039542636719
 20
7.282774443791247
 30
0.0
 41
1.0
 10
19.99030856244996
 20
7.266168061682533
 30
0.0
 41
1.0
 10
19.8150897597038
 20
7.263637919498412
 30
0.0
 41
1.0
 10
19.72680432404184
 20
7.262363086538221
 30
0.0
 41
1.0
  0
SPLINE
  5
B6
330
1F
100
AcDbEntity
  8
0
  6
Continuous
 62
     7
370
    15
100
AcDbSpline
210
0.0
220
0.0
230
1.0
 70
    12
 71
     3
 72
    23
 73
    19
 74
     0
 42
0.00000001
 43
0.00000001
 40
0.0
 40
0.0
 40
0.0
 40
0.0
 40
0.0662580134606915
 40
0.131125696721606
 40
0.1951327405877977
 40
0.25843099020013
 40
0.3207311112503963
 40
0.3822625174663947
 40
0.4434453140919526
 40
0.504543545650659
 40
0.5653815561562748
 40
0.6259757633630222
 40
0.6869904734725413
 40
0.7480713141474088
 40
0.809893254256671
 40
0.8726126042759722
 40
0.935848162387333
 40
1.0
 40
1.0
 40
1.0
 40
1.0
 10
19.72680432404184
 20
17.26250711267273
 30
0.0
 41
1.0
 10
19.81509026793542
 20
17.26124382483313
 30
0.0
 41
1.0
 10
19.98980960072415
 20
17.25874375745294
 30
0.0
 41
1.0
 10
20.24939059431702
 20
17.24203803283627
 30
0.0
 41
1.0
 10
20.50397975643642
 20
17.21367210393145
 30
0.0
 41
1.0
 10
20.75334841921702
 20
17.17265268794308
 30
0.0
 41
1.0
 10
20.99763787767354
 20
17.12218673891556
 30
0.0
 41
1.0
 10
21.23580949598037
 20
17.05814820168078
 30
0.0
 41
1.0
 10
21.46956944388631
 20
16.98480626137302
 30
0.0
 41
1.0
 10
21.69821088032978
 20
16.89920952381156
 30
0.0
 41
1.0
 10
21.92081587965817
 20
16.80098263054175
 30
0.0
 41
1.0
 10
22.13849115954732
 20
16.69251757632237
 30
0.0
 41
1.0
 10
22.35015961230365
 20
16.57207773734579
 30
0.0
 41
1.0
 10
22.55718664467275
 20
16.44078110766728
 30
0.0
 41
1.0
 10
22.75901641267973
 20
16.29761225182379
 30
0.0
 41
1.0
 10
22.95551376589828
 20
16.14262130344792
 30
0.0
 41
1.0
 10
23.14773470517484
 20
15.97741183609891
 30
0.0
 41
1.0
 10
23.26894458638797
 20
15.85853414615428
 30
0.0
 41
1.0
 10
23.32998544975155
 20
15.79866776598578
 30
0.0
 41
1.0
  0
SPLINE
  5
B7
330
1F
100
AcDbEntity
  8
0
  6
Continuous
 62
     7
370
    15
100
AcDbSpline
210
0.0
220
0.0
230
1.0
 70
    12
 71
     3
 72
    23
 73
    19
 74
     0
 42
0.00000001
 43
0.00000001
 40
0.0
 40
0.0
 40
0.0
 40
0.0
 40
0.0660687890833558
 40
0.1314574361009118
 40
0.1952331619986518
 40
0.2583074802800583
 40
0.3205990286137785
 40
0.3824620005724111
 40
0.4433406924513252
 40
0.504432741404551
 40
0.5650421816533303
 40
0.6258121198807345
 40
0.6866752874212909
 40
0.7480072166614496
 40
0.8098760634904155
 40
0.8724923431791493
 40
0.935925210923669
 40
1.0
 40
1.0
 40
1.0
 40
1.0
 10
23.32998544975155
 20
15.79866776598578
 30
0.0
 41
1.0
 10
23.39076007007455
 20
15.73654213463799
 30
0.0
 41
1.0
 10
23.51168366922809
 20
15.61293042135464
 30
0.0
 41
1.0
 10
23.68075583299893
 20
15.41946820871464
 30
0.0
 41
1.0
 10
23.83778010204456
 20
15.22122087525404
 30
0.0
 41
1.0
 10
23.98422482540443
 20
15.0199926173508
 30
0.0
 41
1.0
 10
24.11792026123992
 20
14.81309004661135
 30
0.0
 41
1.0
 10
24.24170955158078
 20
14.60343773612748
 30
0.0
 41
1.0
 10
24.35181695301736
 20
14.38804164977492
 30
0.0
 41
1.0
 10
24.45107900497943
 20
14.16926454933594
 30
0.0
 41
1.0
 10
24.53815648172278
 20
13.94554309651916
 30
0.0
 41
1.0
 10
24.61598562727078
 20
13.71869079757203
 30
0.0
 41
1.0
 10
24.67811665150347
 20
13.48607644835637
 30
0.0
 41
1.0
 10
24.73163141393313
 20
13.24988342295746
 30
0.0
 41
1.0
 10
24.77140094042561
 20
13.00864449019316
 30
0.0
 41
1.0
 10
24.80252920284178
 20
12.76336109115269
 30
0.0
 41
1.0
 10
24.81842864660867
 20
12.51364260294091
 30
0.0
 41
1.0
 10
24.82107812397073
 20
12.34595085516577
 30
0.0
 41
1.0
 10
24.82240953188269
 20
12.26168286972534
 30
0.0
 41
1.0
  0
SPLINE
  5
B8
330
1F
100
AcDbEntity
  8
0
  6
Continuous
 62
     7
370
    15
100
AcDbSpline
210
0.0
220
0.0
230
1.0
 70
    12
 71
     3
 72
    23
 73
    19
 74
     0
 42
0.00000001
 43
0.00000001
 40
0.0
 40
0.0
 40
0.0
 40
0.0
 40
0.0651881781839426
 40
0.1291566773770236
 40
0.1923522261587143
 40
0.2545504496064623
 40
0.3165024404737861
 40
0.377648822758608
 40
0.4385387143934387
 40
0.4996599746638777
 40
0.5603152037486012
 40
0.6213933736688279
 40
0.6828106570854194
 40
0.7446208271085054
 40
0.8070549419075806
 40
0.8705759991488858
 40
0.9345833578744437
 40
1.0
 40
1.0
 40
1.0
 40
1.0
 10
16.18831496802136
 20
8.724697973465137
 30
0.0
 41
1.0
 10
16.12854846321913
 20
8.785824128776497
 30
0.0
 41
1.0
 10
16.01013369241645
 20
8.906932761365635
 30
0.0
 41
1.0
 10
15.84414623350353
 20
9.097062794785998
 30
0.0
 41
1.0
 10
15.69144270910359
 20
9.292956435230465
 30
0.0
 41
1.0
 10
15.54745225092566
 20
9.492058451305775
 30
0.0
 41
1.0
 10
15.41488747412327
 20
9.695861439064862
 30
0.0
 41
1.0
 10
15.29633541950232
 20
9.906108868977745
 30
0.0
 41
1.0
 10
15.1873137125529
 20
10.12019782518191
 30
0.0
 41
1.0
 10
15.09001937167956
 20
10.33917843501561
 30
0.0
 41
1.0
 10
15.0033099227607
 20
10.56285897924289
 30
0.0
 41
1.0
 10
14.93039303552916
 20
10.79178726545131
 30
0.0
 41
1.0
 10
14.86647548319634
 20
11.02495687433541
 30
0.0
 41
1.0
 10
14.81598935494767
 20
11.26322101007796
 30
0.0
 41
1.0
 10
14.7746589957451
 20
11.50602479064563
 30
0.0
 41
1.0
 10
14.74655440633374
 20
11.75363630148359
 30
0.0
 41
1.0
 10
14.72972100089464
 20
12.0061907741807
 30
0.0
 41
1.0
 10
14.72723607372544
 20
12.17590284598484
 30
0.0
 41
1.0
 10
14.72598008109453
 20
12.26168286972534
 30
0.0
 41
1.0
  0
SPLINE
  5
B9
330
1F
100
AcDbEntity
  8
0
  6
Continuous
 62
     7
370
    15
100
AcDbSpline
210
0.0
220
0.0
230
1.0
 70
    12
 71
     3
 72
    23
 73
    19
 74
     0
 42
0.00000001
 43
0.00000001
 40
0.0
 40
0.0
 40
0.0
 40
0.0
 40
0.0653936862967302
 40
0.1297600766041982
 40
0.1928790535158508
 40
0.2552912591064186
 40
0.317453549703871
 40
0.3788492807356387
 40
0.4395422559374019
 40
0.5005331243524221
 40
0.5612838703059361
 40
0.6224936254921745
 40
0.6836185504560557
 40
0.7452281714208392
 40
0.8077152735574765
 40
0.8708886459303338
 40
0.9348346974729418
 40
1.0
 40
1.0
 40
1.0
 40
1.0
 10
19.72680432404184
 20
7.262363086538221
 30
0.0
 41
1.0
 10
19.64102574251855
 20
7.263638556659288
 30
0.0
 41
1.0
 10
19.47081611006315
 20
7.26616946002254
 30
0.0
 41
1.0
 10
19.2182396712621
 20
7.282757189618549
 30
0.0
 41
1.0
 10
18.97065606089252
 20
7.31115802380998
 30
0.0
 41
1.0
 10
18.7278768658613
 20
7.352541561936104
 30
0.0
 41
1.0
 10
18.48904810499437
 20
7.402695166415184
 30
0.0
 41
1.0
 10
18.25578702175068
 20
7.466435589799609
 30
0.0
 41
1.0
 10
18.02724272264606
 20
7.540416928364859
 30
0.0
 41
1.0
 10
17.80344888384266
 20
7.625564129829566
 30
0.0
 41
1.0
 10
17.58471178089408
 20
7.724547770691892
 30
0.0
 41
1.0
 10
17.37003448569121
 20
7.832299672689076
 30
0.0
 41
1.0
 10
17.15966747086823
 20
7.950816704449381
 30
0.0
 41
1.0
 10
16.95683635781629
 20
8.084794160669148
 30
0.0
 41
1.0
 10
16.75666682623615
 20
8.227252181619136
 30
0.0
 41
1.0
 10
16.56074170280004
 20
8.380616866556325
 30
0.0
 41
1.0
 10
16.37053385286572
 20
8.546494189881308
 30
0.0
 41
1.0
 10
16.24943578904556
 20
8.664923918917763
 30
0.0
 41
1.0
 10
16.18831496802136
 20
8.724697973465137
 30
0.0
 41
1.0
  0
SPLINE
  5
BA
330
1F
100
AcDbEntity
  8
0
  6
Continuous
 62
     7
370
    15
100
AcDbSpline
210
0.0
220
0.0
230
1.0
 70
    12
 71
     3
 72
    23
 73
    19
 74
     0
 42
0.00000001
 43
0.00000001
 40
0.0
 40
0.0
 40
0.0
 40
0.0
 40
0.0651543087909904
 40
0.1293780198035138
 40
0.1924782441096541
 40
0.2549548043369947
 40
0.3166677838007766
 40
0.3779721736661379
 40
0.4388304291404866
 40
0.4999199330397636
 40
0.5605436478860824
 40
0.621590083823316
 40
0.6829754570659465
 40
0.744753512785562
 40
0.8071551891022821
 40
0.8706432431256993
 40
0.9346173459689046
 40
0.9999999999999999
 40
0.9999999999999999
 40
0.9999999999999999
 40
0.9999999999999999
 10
16.18831496802136
 20
15.79866776598578
 30
0.0
 41
1.0
 10
16.24932326703652
 20
15.85857477700836
 30
0.0
 41
1.0
 10
16.37046848466868
 20
15.97753314833137
 30
0.0
 41
1.0
 10
16.56256975439065
 20
16.14163487815066
 30
0.0
 41
1.0
 10
16.7563274751224
 20
16.29813291780395
 30
0.0
 41
1.0
 10
16.95662513396111
 20
16.44072796259545
 30
0.0
 41
1.0
 10
17.16182829303272
 20
16.57167666476543
 30
0.0
 41
1.0
 10
17.37073268185446
 20
16.69251760524768
 30
0.0
 41
1.0
 10
17.58539325403704
 20
16.80104499791188
 30
0.0
 41
1.0
 10
17.80428020944549
 20
16.89850200326527
 30
0.0
 41
1.0
 10
18.02798572946643
 20
16.98516807276582
 30
0.0
 41
1.0
 10
18.2569072881137
 20
17.05809664481857
 30
0.0
 41
1.0
 10
18.49007871575215
 20
17.12201103823263
 30
0.0
 41
1.0
 10
18.7283423592877
 20
17.17249802137511
 30
0.0
 41
1.0
 10
18.97114627377488
 20
17.21382814797862
 30
0.0
 41
1.0
 10
19.21875774800036
 20
17.2419328009806
 30
0.0
 41
1.0
 10
19.47131223050367
 20
17.2587661893877
 30
0.0
 41
1.0
 10
19.64102430097509
 20
17.26125111887181
 30
0.0
 41
1.0
 10
19.72680432404184
 20
17.26250711267273
 30
0.0
 41
1.0
  0
LINE
  5
272
330
1F
100
AcDbEntity
  8
0
100
AcDbLine
 10
19.91099129328516
 20
15.82368760377799
 30
0.0
 11
19.91455619096137
 21
15.82725250145416
 31
0.0
  0
LINE
  5
2DD
330
1F
100
AcDbEntity
  8
0
100
AcDbLine
 10
22.80291621566757
 20
8.261972367347424
 30
0.0
 11
23.8110144290794
 21
9.270070580759254
 31
0.0
  0
LINE
  5
2DE
330
1F
100
AcDbEntity
  8
0
100
AcDbLine
 10
22.54058431763599
 20
8.074593788121616
 30
0.0
 11
24.00675199841204
 21
9.54076146889767
 31
0.0
  0
LINE
  5
2DF
330
1F
100
AcDbEntity
  8
0
100
AcDbLine
 10
22.33651260318306
 20
7.945475392474461
 30
0.0
 11
24.13902159274804
 21
9.747984382039439
 31
0.0
  0
LINE
  5
2E0
330
1F
100
AcDbEntity
  8
0
100
AcDbLine
 10
22.16372786492241
 20
7.847643973019591
 30
0.0
 11
24.24235951977282
 21
9.926275627869993
 31
0.0
  0
LINE
  5
2E1
330
1F
100
AcDbEntity
  8
0
100
AcDbLine
 10
22.00979787732945
 20
7.7686673042324
 30
0.0
 11
24.32411257971935
 21
10.0829820066223
 31
0.0
  0
LINE
  5
2E2
330
1F
100
AcDbEntity
  8
0
100
AcDbLine
 10
21.86765452292393
 20
7.701477268632653
 30
0.0
 11
24.39236081921901
 21
10.22618356492774
 31
0.0
  0
LINE
  5
2E3
330
1F
100
AcDbEntity
  8
0
100
AcDbLine
 10
21.73457697852121
 20
7.643353043035708
 30
0.0
 11
24.45109668092445
 21
10.35987274543895
 31
0.0
  0
LINE
  5
2E4
330
1F
100
AcDbEntity
  8
0
100
AcDbLine
 10
21.60922958944639
 20
7.592958972766656
 30
0.0
 11
24.5015323391288
 21
10.48526172244907
 31
0.0
  0
LINE
  5
2E5
330
1F
100
AcDbEntity
  8
0
100
AcDbLine
 10
21.4906419846176
 20
7.549324686743645
 30
0.0
 11
24.54615036148297
 21
10.60483306360901
 31
0.0
  0
LINE
  5
2E6
330
1F
100
AcDbEntity
  8
0
100
AcDbLine
 10
21.37778428804704
 20
7.511420308978852
 30
0.0
 11
24.58583285836811
 21
10.71946887929992
 31
0.0
  0
LINE
  5
2E7
330
1F
100
AcDbEntity
  8
0
100
AcDbLine
 10
21.26938343498824
 20
7.477972774725831
 30
0.0
 11
24.62021922219654
 21
10.82880856193413
 31
0.0
  0
LINE
  5
2E8
330
1F
100
AcDbEntity
  8
0
100
AcDbLine
 10
21.16441818084049
 20
7.447960839383849
 30
0.0
 11
24.64974884023902
 21
10.93329149878238
 31
0.0
  0
LINE
  5
2E9
330
1F
100
AcDbEntity
  8
0
100
AcDbLine
 10
21.06258186082839
 20
7.421077838177524
 30
0.0
 11
22.34097632235035
 21
8.699472299699487
 31
0.0
  0
LINE
  5
2EA
330
1F
100
AcDbEntity
  8
0
100
AcDbLine
 10
23.28760532569887
 20
9.646101303048011
 30
0.0
 11
24.67577546681858
 21
11.03427144416772
 31
0.0
  0
LINE
  5
2EB
330
1F
100
AcDbEntity
  8
0
100
AcDbLine
 10
20.96403277601918
 20
7.397482072174093
 30
0.0
 11
22.09462902243255
 21
8.528078318587458
 31
0.0
  0
LINE
  5
2EC
330
1F
100
AcDbEntity
  8
0
100
AcDbLine
 10
23.46048429711798
 20
9.89393359327289
 30
0.0
 11
24.69912466869456
 21
11.13257396484947
 31
0.0
  0
LINE
  5
2ED
330
1F
100
AcDbEntity
  8
0
100
AcDbLine
 10
20.86814859755191
 20
7.376551212512592
 30
0.0
 11
21.90079928531626
 21
8.40920190027695
 31
0.0
  0
LINE
  5
2EE
330
1F
100
AcDbEntity
  8
0
100
AcDbLine
 10
23.57670040875965
 20
10.08510302372033
 30
0.0
 11
24.72002811910517
 21
11.22843073406586
 31
0.0
  0
LINE
  5
2EF
330
1F
100
AcDbEntity
  8
0
100
AcDbLine
 10
20.77467648034367
 20
7.358032414110127
 30
0.0
 11
21.73818847785941
 21
8.321544411625865
 31
0.0
  0
LINE
  5
2F0
330
1F
100
AcDbEntity
  8
0
100
AcDbLine
 10
23.6674010033165
 20
10.25075693708296
 30
0.0
 11
24.73822779877414
 21
11.3215837325406
 31
0.0
  0
LINE
  5
2F1
330
1F
100
AcDbEntity
  8
0
100
AcDbLine
 10
20.68300518234007
 20
7.341314434912305
 30
0.0
 11
21.59117535725633
 21
8.249484609828563
 31
0.0
  0
LINE
  5
2F2
330
1F
100
AcDbEntity
  8
0
100
AcDbLine
 10
23.73891847866697
 20
10.3972277312392
 30
0.0
 11
24.75395495397584
 21
11.41226420654807
 31
0.0
  0
LINE
  5
2F3
330
1F
100
AcDbEntity
  8
0
100
AcDbLine
 10
20.59323025899266
 20
7.326492830370666
 30
0.0
 11
21.45568824352835
 21
8.188950814906358
 31
0.0
  0
LINE
  5
2F4
330
1F
100
AcDbEntity
  8
0
100
AcDbLine
 10
23.799442885566
 20
10.532705456944
 30
0.0
 11
24.76780730473275
 21
11.50106987611075
 31
0.0
  0
LINE
  5
2F5
330
1F
100
AcDbEntity
  8
0
100
AcDbLine
 10
20.50517496273688
 20
7.313390852920656
 30
0.0
 11
21.33071946159081
 21
8.13893535177459
 31
0.0
  0
LINE
  5
2F6
330
1F
100
AcDbEntity
  8
0
100
AcDbLine
 10
23.84999554647896
 20
10.65821143666274
 30
0.0
 11
24.78008155111728
 21
11.58829744130106
 31
0.0
  0
LINE
  5
2F7
330
1F
100
AcDbEntity
  8
0
100
AcDbLine
 10
20.41919871412179
 20
7.302367923111349
 30
0.0
 11
21.21284412573472
 21
8.096013334724269
 31
0.0
  0
LINE
  5
2F8
330
1F
100
AcDbEntity
  8
0
100
AcDbLine
 10
23.89330512989652
 20
10.77647433888607
 30
0.0
 11
24.79071845568761
 21
11.67388766467716
 31
0.0
  0
LINE
  5
2F9
330
1F
100
AcDbEntity
  8
0
100
AcDbLine
 10
20.33480556829717
 20
7.292928096092502
 30
0.0
 11
21.09943793330075
 21
8.057560461096077
 31
0.0
  0
LINE
  5
2FA
330
1F
100
AcDbEntity
  8
0
100
AcDbLine
 10
23.93153445890955
 20
10.88965698670487
 30
0.0
 11
24.79970162291866
 21
11.75782415071399
 31
0.0
  0
LINE
  5
2FB
330
1F
100
AcDbEntity
  8
0
100
AcDbLine
 10
20.25185352513491
 20
7.284929371736009
 30
0.0
 11
20.99107312403199
 21
8.024148970633092
 31
0.0
  0
LINE
  5
2FC
330
1F
100
AcDbEntity
  8
0
100
AcDbLine
 10
23.96389996177247
 20
10.99697580837357
 30
0.0
 11
24.80669508730811
 21
11.83977093390921
 31
0.0
  0
LINE
  5
2FD
330
1F
100
AcDbEntity
  8
0
100
AcDbLine
 10
20.17039005099094
 20
7.278419216397813
 30
0.0
 11
20.88771832646801
 21
7.995747491874884
 31
0.0
  0
LINE
  5
2FE
330
1F
100
AcDbEntity
  8
0
100
AcDbLine
 10
23.991084296888
 20
11.09911346229487
 30
0.0
 11
24.81203591612427
 21
11.92006508153115
 31
0.0
  0
LINE
  5
2FF
330
1F
100
AcDbEntity
  8
0
100
AcDbLine
 10
20.09021720882385
 20
7.273199693036499
 30
0.0
 11
20.78829253019062
 21
7.971275014403273
 31
0.0
  0
LINE
  5
300
330
1F
100
AcDbEntity
  8
0
100
AcDbLine
 10
24.01538768119919
 20
11.19837016541184
 30
0.0
 11
24.81595909138524
 21
11.99894157559788
 31
0.0
  0
LINE
  5
301
330
1F
100
AcDbEntity
  8
0
100
AcDbLine
 10
20.01128849257545
 20
7.269224295593875
 30
0.0
 11
20.69206583642633
 21
7.950001639444748
 31
0.0
  0
LINE
  5
302
330
1F
100
AcDbEntity
  8
0
100
AcDbLine
 10
24.03761666418145
 20
11.29555246719987
 30
0.0
 11
24.81868062333254
 21
12.07661642635096
 31
0.0
  0
LINE
  5
303
330
1F
100
AcDbEntity
  8
0
100
AcDbLine
 10
19.93352919504401
 20
7.266418316868203
 30
0.0
 11
20.59871185251927
 21
7.931600974343464
 31
0.0
  0
LINE
  5
304
330
1F
100
AcDbEntity
  8
0
100
AcDbLine
 10
24.05692649696775
 20
11.38981561879194
 30
0.0
 11
24.82054006485296
 21
12.15342918667716
 31
0.0
  0
LINE
  5
305
330
1F
100
AcDbEntity
  8
0
100
AcDbLine
 10
19.85667102958391
 20
7.264513470213882
 30
0.0
 11
20.50799998587549
 21
7.915842426505455
 31
0.0
  0
LINE
  5
306
330
1F
100
AcDbEntity
  8
0
100
AcDbLine
 10
24.07286749774942
 20
11.48070993837939
 30
0.0
 11
24.82189965752053
 21
12.2297420981505
 31
0.0
  0
LINE
  5
307
330
1F
100
AcDbEntity
  8
0
100
AcDbLine
 10
19.78036575923322
 20
7.26316151866896
 30
0.0
 11
20.41952901806242
 21
7.902324777498163
 31
0.0
  0
LINE
  5
308
330
1F
100
AcDbEntity
  8
0
100
AcDbLine
 10
24.08621573662984
 20
11.56901149606558
 30
0.0
 11
24.82171921071772
 21
12.30451497015346
 31
0.0
  0
LINE
  5
309
330
1F
100
AcDbEntity
  8
0
100
AcDbLine
 10
19.70494287468733
 20
7.262691952928841
 30
0.0
 11
20.33277371909644
 21
7.890522797337955
 31
0.0
  0
LINE
  5
30A
330
1F
100
AcDbEntity
  8
0
100
AcDbLine
 10
24.09790846694817
 20
11.65565754518969
 30
0.0
 11
24.82036173157478
 21
12.3781108098163
 31
0.0
  0
LINE
  5
30B
330
1F
100
AcDbEntity
  8
0
100
AcDbLine
 10
19.63120624446823
 20
7.263908641515515
 30
0.0
 11
20.24778372845217
 21
7.88048612549946
 31
0.0
  0
LINE
  5
30C
330
1F
100
AcDbEntity
  8
0
100
AcDbLine
 10
21.18376762176559
 20
8.816470018812874
 30
0.0
 11
21.19515705003451
 21
8.827859447081794
 31
0.0
  0
LINE
  5
30D
330
1F
100
AcDbEntity
  8
0
100
AcDbLine
 10
24.10796266906661
 20
11.7406650661139
 30
0.0
 11
24.81854270224316
 21
12.45124509929044
 31
0.0
  0
LINE
  5
30E
330
1F
100
AcDbEntity
  8
0
100
AcDbLine
 10
19.55786099563818
 20
7.265516711491244
 30
0.0
 11
20.16441312511201
 21
7.872068840965071
 31
0.0
  0
LINE
  5
30F
330
1F
100
AcDbEntity
  8
0
100
AcDbLine
 10
21.10881430295981
 20
8.816470018812872
 30
0.0
 11
21.19515705003451
 21
8.902812765887568
 31
0.0
  0
LINE
  5
310
330
1F
100
AcDbEntity
  8
0
100
AcDbLine
 10
24.11642240922378
 20
11.82407812507684
 30
0.0
 11
24.81599267799516
 21
12.52364839384822
 31
0.0
  0
LINE
  5
311
330
1F
100
AcDbEntity
  8
0
100
AcDbLine
 10
19.4851932801775
 20
7.267802314836336
 30
0.0
 11
20.08276078293068
 21
7.865369817589513
 31
0.0
  0
LINE
  5
312
330
1F
100
AcDbEntity
  8
0
100
AcDbLine
 10
21.03386098415404
 20
8.816470018812874
 30
0.0
 11
21.19515705003451
 21
8.977766084693343
 31
0.0
  0
LINE
  5
313
330
1F
100
AcDbEntity
  8
0
100
AcDbLine
 10
24.12313332613872
 20
11.90574236079756
 30
0.0
 11
24.81250935346063
 21
12.59511838811946
 31
0.0
  0
LINE
  5
314
330
1F
100
AcDbEntity
  8
0
100
AcDbLine
 10
19.41343330667069
 20
7.270995660135299
 30
0.0
 11
20.00285175402593
 21
7.860414107490537
 31
0.0
  0
LINE
  5
315
330
1F
100
AcDbEntity
  8
0
100
AcDbLine
 10
20.95890766534826
 20
8.816470018812874
 30
0.0
 11
21.19515705003451
 21
9.052719403499115
 31
0.0
  0
LINE
  5
316
330
1F
100
AcDbEntity
  8
0
100
AcDbLine
 10
24.12807999337208
 20
11.98564234683668
 30
0.0
 11
24.80802281519758
 21
12.66558516866219
 31
0.0
  0
LINE
  5
317
330
1F
100
AcDbEntity
  8
0
100
AcDbLine
 10
19.34263009733048
 20
7.275145769600869
 30
0.0
 11
19.92456384176771
 21
7.857079514038099
 31
0.0
  0
LINE
  5
318
330
1F
100
AcDbEntity
  8
0
100
AcDbLine
 10
20.88395434654249
 20
8.816470018812872
 30
0.0
 11
21.19515705003451
 21
9.127672722304888
 31
0.0
  0
LINE
  5
319
330
1F
100
AcDbEntity
  8
0
100
AcDbLine
 10
24.13140498279813
 20
12.06392065506851
 30
0.0
 11
24.8024936661488
 21
12.73500933841919
 31
0.0
  0
LINE
  5
31A
330
1F
100
AcDbEntity
  8
0
100
AcDbLine
 10
19.27274329635429
 20
7.280212287430449
 30
0.0
 11
19.84770219396272
 21
7.855171185038881
 31
0.0
  0
LINE
  5
31B
330
1F
100
AcDbEntity
  8
0
100
AcDbLine
 10
20.80900102773672
 20
8.816470018812874
 30
0.0
 11
21.19515705003451
 21
9.202626041110664
 31
0.0
  0
LINE
  5
31C
330
1F
100
AcDbEntity
  8
0
100
AcDbLine
 10
24.13331121184319
 20
12.14078020291934
 30
0.0
 11
24.79581450491311
 21
12.80328349598926
 31
0.0
  0
LINE
  5
31D
330
1F
100
AcDbEntity
  8
0
100
AcDbLine
 10
19.20376511274197
 20
7.2861874226239
 30
0.0
 11
19.77166346918451
 21
7.854085779066444
 31
0.0
  0
LINE
  5
31E
330
1F
100
AcDbEntity
  8
0
100
AcDbLine
 10
20.73404770893094
 20
8.816470018812874
 30
0.0
 11
21.19515705003451
 21
9.277579359916437
 31
0.0
  0
LINE
  5
31F
330
1F
100
AcDbEntity
  8
0
100
AcDbLine
 10
24.13439904558341
 20
12.21682135546534
 30
0.0
 11
24.78823665835424
 21
12.87065896823617
 31
0.0
  0
LINE
  5
320
330
1F
100
AcDbEntity
  8
0
100
AcDbLine
 10
19.13563181340277
 20
7.29300744209047
 30
0.0
 11
19.69696989958479
 21
7.854345528272499
 31
0.0
  0
LINE
  5
321
330
1F
100
AcDbEntity
  8
0
100
AcDbLine
 10
20.65909439012517
 20
8.816470018812872
 30
0.0
 11
21.19515705003451
 21
9.35253267872221
 31
0.0
  0
LINE
  5
322
330
1F
100
AcDbEntity
  8
0
100
AcDbLine
 10
22.01009925481484
 20
10.16747488350254
 30
0.0
 11
22.07225709021606
 21
10.22963271890376
 31
0.0
  0
LINE
  5
323
330
1F
100
AcDbEntity
  8
0
100
AcDbLine
 10
24.13456290513069
 20
12.29193853381839
 30
0.0
 11
24.77980707158673
 21
12.93718270027444
 31
0.0
  0
LINE
  5
324
330
1F
100
AcDbEntity
  8
0
100
AcDbLine
 10
19.06834552313179
 20
7.300674470625268
 30
0.0
 11
19.62389854024052
 21
7.856227487734002
 31
0.0
  0
LINE
  5
325
330
1F
100
AcDbEntity
  8
0
100
AcDbLine
 10
20.5841410713194
 20
8.816470018812874
 30
0.0
 11
21.1951570500345
 21
9.427485997527981
 31
0.0
  0
LINE
  5
326
330
1F
100
AcDbEntity
  8
0
100
AcDbLine
 10
21.93514593600906
 20
10.16747488350254
 30
0.0
 11
22.07225709021606
 21
10.30458603770954
 31
0.0
  0
LINE
  5
327
330
1F
100
AcDbEntity
  8
0
100
AcDbLine
 10
24.13360170859649
 20
12.36593065608997
 30
0.0
 11
24.7706571456476
 21
13.00298609314108
 31
0.0
  0
LINE
  5
328
330
1F
100
AcDbEntity
  8
0
100
AcDbLine
 10
19.00191040144448
 20
7.309192667743732
 30
0.0
 11
19.551198468562
 21
7.858480734861253
 31
0.0
  0
LINE
  5
329
330
1F
100
AcDbEntity
  8
0
100
AcDbLine
 10
20.50918775251362
 20
8.816470018812874
 30
0.0
 11
21.1951570500345
 21
9.502439316333756
 31
0.0
  0
LINE
  5
32A
330
1F
100
AcDbEntity
  8
0
100
AcDbLine
 10
21.86019261720329
 20
10.16747488350254
 30
0.0
 11
22.07225709021606
 21
10.37953935651531
 31
0.0
  0
LINE
  5
32B
330
1F
100
AcDbEntity
  8
0
100
AcDbLine
 10
24.13199823341149
 20
12.43928049971074
 30
0.0
 11
24.76088510007567
 21
13.06816736637492
 31
0.0
  0
LINE
  5
32C
330
1F
100
AcDbEntity
  8
0
100
AcDbLine
 10
18.93631991692238
 20
7.318555502027407
 30
0.0
 11
19.47908934346216
 21
7.86132492856719
 31
0.0
  0
LINE
  5
32D
330
1F
100
AcDbEntity
  8
0
100
AcDbLine
 10
20.43423443370785
 20
8.816470018812872
 30
0.0
 11
21.19515705003451
 21
9.57739263513953
 31
0.0
  0
LINE
  5
32E
330
1F
100
AcDbEntity
  8
0
100
AcDbLine
 10
21.78523929839752
 20
10.16747488350254
 30
0.0
 11
22.07225709021606
 21
10.45449267532108
 31
0.0
  0
LINE
  5
32F
330
1F
100
AcDbEntity
  8
0
100
AcDbLine
 10
24.12936270689384
 20
12.51159829199887
 30
0.0
 11
24.75043218523246
 21
13.13266777033748
 31
0.0
  0
LINE
  5
330
330
1F
100
AcDbEntity
  8
0
100
AcDbLine
 10
18.87153246936162
 20
7.328721373272419
 30
0.0
 11
19.40773680225043
 21
7.864925706161226
 31
0.0
  0
LINE
  5
331
330
1F
100
AcDbEntity
  8
0
100
AcDbLine
 10
20.35928111490207
 20
8.816470018812872
 30
0.0
 11
21.19515705003451
 21
9.652345953945305
 31
0.0
  0
LINE
  5
332
330
1F
100
AcDbEntity
  8
0
100
AcDbLine
 10
21.71028597959174
 20
10.16747488350254
 30
0.0
 11
22.07225709021606
 21
10.52944599412686
 31
0.0
  0
LINE
  5
333
330
1F
100
AcDbEntity
  8
0
100
AcDbLine
 10
24.12550223929059
 20
12.58269114320139
 30
0.0
 11
24.7392359013052
 21
13.196424805216
 31
0.0
  0
LINE
  5
334
330
1F
100
AcDbEntity
  8
0
100
AcDbLine
 10
18.80746634720002
 20
7.339608569916595
 30
0.0
 11
19.33742915173595
 21
7.869571374452526
 31
0.0
  0
LINE
  5
335
330
1F
100
AcDbEntity
  8
0
100
AcDbLine
 10
20.2843277960963
 20
8.816470018812874
 30
0.0
 11
21.19515705003451
 21
9.727299272751079
 31
0.0
  0
LINE
  5
336
330
1F
100
AcDbEntity
  8
0
100
AcDbLine
 10
21.63533266078597
 20
10.16747488350254
 30
0.0
 11
22.07225709021606
 21
10.60439931293263
 31
0.0
  0
LINE
  5
337
330
1F
100
AcDbEntity
  8
0
100
AcDbLine
 10
24.12045415092653
 20
12.6525963736431
 30
0.0
 11
24.72724840672536
 21
13.25939062944193
 31
0.0
  0
LINE
  5
338
330
1F
100
AcDbEntity
  8
0
100
AcDbLine
 10
18.74404162722598
 20
7.351137168748326
 30
0.0
 11
19.26831657860957
 21
7.875412120131914
 31
0.0
  0
LINE
  5
339
330
1F
100
AcDbEntity
  8
0
100
AcDbLine
 10
20.20937447729053
 20
8.816470018812874
 30
0.0
 11
21.19515705003451
 21
9.80225259155685
 31
0.0
  0
LINE
  5
33A
330
1F
100
AcDbEntity
  8
0
100
AcDbLine
 10
21.56037934198019
 20
10.16747488350254
 30
0.0
 11
22.07225709021606
 21
10.6793526317384
 31
0.0
  0
LINE
  5
33B
330
1F
100
AcDbEntity
  8
0
100
AcDbLine
 10
24.11431827674542
 20
12.72141381826776
 30
0.0
 11
24.71445122212141
 21
13.32154676364376
 31
0.0
  0
LINE
  5
33C
330
1F
100
AcDbEntity
  8
0
100
AcDbLine
 10
18.68119915746723
 20
7.36324801779535
 30
0.0
 11
19.20036403662918
 21
7.882412896957302
 31
0.0
  0
LINE
  5
33D
330
1F
100
AcDbEntity
  8
0
100
AcDbLine
 10
20.13442115848475
 20
8.816470018812872
 30
0.0
 11
21.19515705003451
 21
9.877205910362628
 31
0.0
  0
LINE
  5
33E
330
1F
100
AcDbEntity
  8
0
100
AcDbLine
 10
21.48542602317442
 20
10.16747488350254
 30
0.0
 11
22.07225709021606
 21
10.75430595054418
 31
0.0
  0
LINE
  5
33F
330
1F
100
AcDbEntity
  8
0
100
AcDbLine
 10
24.10722384251935
 20
12.78927270284747
 30
0.0
 11
24.70092332789456
 21
13.38297218822268
 31
0.0
  0
LINE
  5
340
330
1F
100
AcDbEntity
  8
0
100
AcDbLine
 10
18.61895953649965
 20
7.375961715633545
 30
0.0
 11
19.13351184281693
 21
7.890514021950822
 31
0.0
  0
LINE
  5
341
330
1F
100
AcDbEntity
  8
0
100
AcDbLine
 10
20.05946783967898
 20
8.816470018812874
 30
0.0
 11
21.19515705003451
 21
9.9521592291684
 31
0.0
  0
LINE
  5
342
330
1F
100
AcDbEntity
  8
0
100
AcDbLine
 10
21.41047270436865
 20
10.16747488350254
 30
0.0
 11
22.07225709021606
 21
10.82925926934995
 31
0.0
  0
LINE
  5
343
330
1F
100
AcDbEntity
  8
0
100
AcDbLine
 10
24.09931032780439
 20
12.85631250693828
 30
0.0
 11
24.68675472377594
 21
13.44375690290984
 31
0.0
  0
LINE
  5
344
330
1F
100
AcDbEntity
  8
0
100
AcDbLine
 10
18.55738307102816
 20
7.389338568967821
 30
0.0
 11
19.06782374158053
 21
7.899779239520194
 31
0.0
  0
LINE
  5
345
330
1F
100
AcDbEntity
  8
0
100
AcDbLine
 10
19.98451452087321
 20
8.816470018812876
 30
0.0
 11
21.19515705003451
 21
10.02711254797417
 31
0.0
  0
LINE
  5
346
330
1F
100
AcDbEntity
  8
0
100
AcDbLine
 10
21.33551938556287
 20
10.16747488350254
 30
0.0
 11
22.07225709021606
 21
10.90421258815573
 31
0.0
  0
LINE
  5
347
330
1F
100
AcDbEntity
  8
0
100
AcDbLine
 10
24.09067362179988
 20
12.92262911973955
 30
0.0
 11
24.67202170551908
 21
13.50397720345874
 31
0.0
  0
LINE
  5
348
330
1F
100
AcDbEntity
  8
0
100
AcDbLine
 10
18.49653086949368
 20
7.403439686239114
 30
0.0
 11
19.0030627957965
 21
7.909971612541939
 31
0.0
  0
LINE
  5
349
330
1F
100
AcDbEntity
  8
0
100
AcDbLine
 10
19.94495098929438
 20
8.851859806039823
 30
0.0
 11
21.1951570500345
 21
10.10206586677994
 31
0.0
  0
LINE
  5
34A
330
1F
100
AcDbEntity
  8
0
100
AcDbLine
 10
21.2605660667571
 20
10.16747488350254
 30
0.0
 11
22.07225709021606
 21
10.9791659069615
 31
0.0
  0
LINE
  5
34B
330
1F
100
AcDbEntity
  8
0
100
AcDbLine
 10
24.08132894657581
 20
12.98823776332124
 30
0.0
 11
24.65673795207388
 21
13.56364676881932
 31
0.0
  0
LINE
  5
34C
330
1F
100
AcDbEntity
  8
0
100
AcDbLine
 10
18.43643844993738
 20
7.418300585488591
 30
0.0
 11
18.93917075417046
 21
7.921032889721676
 31
0.0
  0
LINE
  5
34D
330
1F
100
AcDbEntity
  8
0
100
AcDbLine
 10
19.94495098929438
 20
8.926813124845598
 30
0.0
 11
22.07225709021606
 21
11.05411922576727
 31
0.0
  0
LINE
  5
34E
330
1F
100
AcDbEntity
  8
0
100
AcDbLine
 10
24.0711380038439
 20
13.05300013939511
 30
0.0
 11
24.64083185894418
 21
13.6226939944954
 31
0.0
  0
LINE
  5
34F
330
1F
100
AcDbEntity
  8
0
100
AcDbLine
 10
18.37707809268735
 20
7.433893547044335
 30
0.0
 11
18.87609390282054
 21
7.932909357177525
 31
0.0
  0
LINE
  5
350
330
1F
100
AcDbEntity
  8
0
100
AcDbLine
 10
19.94495098929438
 20
9.001766443651372
 30
0.0
 11
22.07225709021606
 21
11.12907254457305
 31
0.0
  0
LINE
  5
351
330
1F
100
AcDbEntity
  8
0
100
AcDbLine
 10
24.06000408033674
 20
13.11681953469372
 30
0.0
 11
24.62421706633686
 21
13.68103252069385
 31
0.0
  0
LINE
  5
352
330
1F
100
AcDbEntity
  8
0
100
AcDbLine
 10
18.31839233625402
 20
7.450161109416787
 30
0.0
 11
18.81388683469549
 21
7.94565560785825
 31
0.0
  0
LINE
  5
353
330
1F
100
AcDbEntity
  8
0
100
AcDbLine
 10
19.94495098929439
 20
9.076719762457147
 30
0.0
 11
22.07225709021606
 21
11.20402586337882
 31
0.0
  0
LINE
  5
354
330
1F
100
AcDbEntity
  8
0
100
AcDbLine
 10
24.04781654711813
 20
13.1795853202809
 30
0.0
 11
24.60682509379147
 21
13.73859386695423
 31
0.0
  0
LINE
  5
355
330
1F
100
AcDbEntity
  8
0
100
AcDbLine
 10
18.26032613490739
 20
7.467048226875925
 30
0.0
 11
18.75244789446874
 21
7.959169986437275
 31
0.0
  0
LINE
  5
356
330
1F
100
AcDbEntity
  8
0
100
AcDbLine
 10
19.94495098929438
 20
9.151673081262919
 30
0.0
 11
22.07225709021606
 21
11.27897918218459
 31
0.0
  0
LINE
  5
357
330
1F
100
AcDbEntity
  8
0
100
AcDbLine
 10
24.03465674273463
 20
13.24137883470316
 30
0.0
 11
24.58865400410407
 21
13.7953760960726
 31
0.0
  0
LINE
  5
358
330
1F
100
AcDbEntity
  8
0
100
AcDbLine
 10
18.20283303749225
 20
7.484508448266555
 30
0.0
 11
18.69177409677522
 21
7.973449507549526
 31
0.0
  0
LINE
  5
359
330
1F
100
AcDbEntity
  8
0
100
AcDbLine
 10
19.94495098929438
 20
9.22662640006869
 30
0.0
 11
22.03972010881409
 21
11.3213955195884
 31
0.0
  0
LINE
  5
35A
330
1F
100
AcDbEntity
  8
0
100
AcDbLine
 10
24.02074776601293
 20
13.30242317678724
 30
0.0
 11
24.56978714680434
 21
13.85146255757865
 31
0.0
  0
LINE
  5
35B
330
1F
100
AcDbEntity
  8
0
100
AcDbLine
 10
18.14590709445653
 20
7.50253582403661
 30
0.0
 11
18.6318587394271
 21
7.988487469007181
 31
0.0
  0
LINE
  5
35C
330
1F
100
AcDbEntity
  8
0
100
AcDbLine
 10
19.94495098929438
 20
9.301579718874464
 30
0.0
 11
21.96476679000832
 21
11.3213955195884
 31
0.0
  0
LINE
  5
35D
330
1F
100
AcDbEntity
  8
0
100
AcDbLine
 10
24.00629604378787
 20
13.36292477336795
 30
0.0
 11
24.55031964292075
 21
13.90694837250083
 31
0.0
  0
LINE
  5
35E
330
1F
100
AcDbEntity
  8
0
100
AcDbLine
 10
18.08954974434562
 20
7.521131792731475
 30
0.0
 11
18.57269493758276
 21
8.004276985968614
 31
0.0
  0
LINE
  5
35F
330
1F
100
AcDbEntity
  8
0
100
AcDbLine
 10
19.94495098929438
 20
9.37653303768024
 30
0.0
 11
21.88981347120255
 21
11.3213955195884
 31
0.0
  0
LINE
  5
360
330
1F
100
AcDbEntity
  8
0
100
AcDbLine
 10
23.99144319229121
 20
13.42302524067706
 30
0.0
 11
24.53033461020924
 21
13.9619166585951
 31
0.0
  0
LINE
  5
361
330
1F
100
AcDbEntity
  8
0
100
AcDbLine
 10
18.03376315491793
 20
7.540298522109558
 30
0.0
 11
18.51427563217907
 21
8.020810999370699
 31
0.0
  0
LINE
  5
362
330
1F
100
AcDbEntity
  8
0
100
AcDbLine
 10
19.94495098929438
 20
9.451486356486013
 30
0.0
 11
21.81486015239678
 21
11.3213955195884
 31
0.0
  0
LINE
  5
363
330
1F
100
AcDbEntity
  8
0
100
AcDbLine
 10
23.97599409961079
 20
13.48252946680242
 30
0.0
 11
24.50987469792424
 21
14.01641006511587
 31
0.0
  0
LINE
  5
364
330
1F
100
AcDbEntity
  8
0
100
AcDbLine
 10
17.97855327654639
 20
7.560041962543791
 30
0.0
 11
18.45659172706135
 21
8.038080413058752
 31
0.0
  0
LINE
  5
365
330
1F
100
AcDbEntity
  8
0
100
AcDbLine
 10
19.94495098929438
 20
9.526439675291789
 30
0.0
 11
21.739906833591
 21
11.32139551958841
 31
0.0
  0
LINE
  5
366
330
1F
100
AcDbEntity
  8
0
100
AcDbLine
 10
23.95971337490349
 20
13.54120206090089
 30
0.0
 11
24.48892437696584
 21
14.07041306296324
 31
0.0
  0
LINE
  5
367
330
1F
100
AcDbEntity
  8
0
100
AcDbLine
 10
17.92393366834898
 20
7.580375673152151
 30
0.0
 11
18.39963484734468
 21
8.05607685214785
 31
0.0
  0
LINE
  5
368
330
1F
100
AcDbEntity
  8
0
100
AcDbLine
 10
19.94495098929438
 20
9.60139299409756
 30
0.0
 11
21.66495351478523
 21
11.3213955195884
 31
0.0
  0
LINE
  5
369
330
1F
100
AcDbEntity
  8
0
100
AcDbLine
 10
23.94242769046938
 20
13.59886969527255
 30
0.0
 11
24.46745513164597
 21
14.12389713644915
 31
0.0
  0
LINE
  5
36A
330
1F
100
AcDbEntity
  8
0
100
AcDbLine
 10
17.8699221580965
 20
7.601317481705448
 30
0.0
 11
18.34346138123611
 21
8.074856704845061
 31
0.0
  0
LINE
  5
36B
330
1F
100
AcDbEntity
  8
0
100
AcDbLine
 10
19.94495098929438
 20
9.676346312903334
 30
0.0
 11
21.59000019597945
 21
11.3213955195884
 31
0.0
  0
LINE
  5
36C
330
1F
100
AcDbEntity
  8
0
100
AcDbLine
 10
23.92419269519303
 20
13.65558801880198
 30
0.0
 11
24.44544128565032
 21
14.17683660925927
 31
0.0
  0
LINE
  5
36D
330
1F
100
AcDbEntity
  8
0
100
AcDbLine
 10
17.81653571854031
 20
7.622884360955037
 30
0.0
 11
18.28801075531058
 21
8.094359397725299
 31
0.0
  0
LINE
  5
36E
330
1F
100
AcDbEntity
  8
0
100
AcDbLine
 10
19.94495098929438
 20
9.751299631709106
 30
0.0
 11
21.51504687717368
 21
11.3213955195884
 31
0.0
  0
LINE
  5
36F
330
1F
100
AcDbEntity
  8
0
100
AcDbLine
 10
23.90520874478898
 20
13.7115573872037
 30
0.0
 11
24.42287399366753
 21
14.22922263608225
 31
0.0
  0
LINE
  5
370
330
1F
100
AcDbEntity
  8
0
100
AcDbLine
 10
17.76377808309274
 20
7.645080044313236
 30
0.0
 11
18.23320451923752
 21
8.114506480458019
 31
0.0
  0
LINE
  5
371
330
1F
100
AcDbEntity
  8
0
100
AcDbLine
 10
19.94495098929438
 20
9.826252950514881
 30
0.0
 11
21.44009355836791
 21
11.3213955195884
 31
0.0
  0
LINE
  5
372
330
1F
100
AcDbEntity
  8
0
100
AcDbLine
 10
23.88567395896997
 20
13.76697592019047
 30
0.0
 11
24.39977149894612
 21
14.28107346016662
 31
0.0
  0
LINE
  5
373
330
1F
100
AcDbEntity
  8
0
100
AcDbLine
 10
17.71161137431062
 20
7.66786665433689
 30
0.0
 11
18.17901870554993
 21
8.135273985576202
 31
0.0
  0
LINE
  5
374
330
1F
100
AcDbEntity
  8
0
100
AcDbLine
 10
19.94495098929438
 20
9.901206269320655
 30
0.0
 11
21.36514023956213
 21
11.3213955195884
 31
0.0
  0
LINE
  5
375
330
1F
100
AcDbEntity
  8
0
100
AcDbLine
 10
23.86574366845352
 20
13.82199894847979
 30
0.0
 11
24.3761546048127
 21
14.33240988483898
 31
0.0
  0
LINE
  5
376
330
1F
100
AcDbEntity
  8
0
100
AcDbLine
 10
17.65997764657599
 20
7.691186245408028
 30
0.0
 11
18.12543116046846
 21
8.156639759300504
 31
0.0
  0
LINE
  5
377
330
1F
100
AcDbEntity
  8
0
100
AcDbLine
 10
19.94495098929438
 20
9.976159588126428
 30
0.0
 11
21.29018692075636
 21
11.3213955195884
 31
0.0
  0
LINE
  5
378
330
1F
100
AcDbEntity
  8
0
100
AcDbLine
 10
23.84531780946454
 20
13.87652640829658
 30
0.0
 11
24.35202697468395
 21
14.38323557351599
 31
0.0
  0
LINE
  5
379
330
1F
100
AcDbEntity
  8
0
100
AcDbLine
 10
17.60881902727394
 20
7.714980944911756
 30
0.0
 11
18.07242211575748
 21
8.178584033395301
 31
0.0
  0
LINE
  5
37A
330
1F
100
AcDbEntity
  8
0
100
AcDbLine
 10
19.94495098929438
 20
10.0511129069322
 30
0.0
 11
21.21523360195058
 21
11.3213955195884
 31
0.0
  0
LINE
  5
37B
330
1F
100
AcDbEntity
  8
0
100
AcDbLine
 10
23.82426161103203
 20
13.93042352866985
 30
0.0
 11
24.32743502418137
 21
14.43359694181918
 31
0.0
  0
LINE
  5
37C
330
1F
100
AcDbEntity
  8
0
100
AcDbLine
 10
17.55808818667661
 20
7.739203423120204
 30
0.0
 11
18.02003024586948
 21
8.201145482313075
 31
0.0
  0
LINE
  5
37D
330
1F
100
AcDbEntity
  8
0
100
AcDbLine
 10
19.94495098929438
 20
10.12606622573798
 30
0.0
 11
21.19515705003451
 21
11.3762722864781
 31
0.0
  0
LINE
  5
37E
330
1F
100
AcDbEntity
  8
0
100
AcDbLine
 10
23.80246475339814
 20
13.98357998984173
 30
0.0
 11
24.30236137809648
 21
14.48347661454007
 31
0.0
  0
LINE
  5
37F
330
1F
100
AcDbEntity
  8
0
100
AcDbLine
 10
17.50776506877039
 20
7.76383362401975
 30
0.0
 11
17.96829333517484
 21
8.224361890424207
 31
0.0
  0
LINE
  5
380
330
1F
100
AcDbEntity
  8
0
100
AcDbLine
 10
19.91140632825318
 20
10.16747488350254
 30
0.0
 11
21.19515705003451
 21
11.45122560528387
 31
0.0
  0
LINE
  5
381
330
1F
100
AcDbEntity
  8
0
100
AcDbLine
 10
23.77991665024015
 20
14.03598520548952
 30
0.0
 11
24.27678262439548
 21
14.53285117964484
 31
0.0
  0
LINE
  5
382
330
1F
100
AcDbEntity
  8
0
100
AcDbLine
 10
17.45785705959941
 20
7.788878933654547
 30
0.0
 11
17.91711390201904
 21
8.24813577607418
 31
0.0
  0
LINE
  5
383
330
1F
100
AcDbEntity
  8
0
100
AcDbLine
 10
19.8364530094474
 20
10.16747488350254
 30
0.0
 11
21.19515705003451
 21
11.52617892408965
 31
0.0
  0
LINE
  5
384
330
1F
100
AcDbEntity
  8
0
100
AcDbLine
 10
23.75671078043146
 20
14.08773265448659
 30
0.0
 11
24.25067536117493
 21
14.58169723523007
 31
0.0
  0
LINE
  5
385
330
1F
100
AcDbEntity
  8
0
100
AcDbLine
 10
17.40837603466769
 20
7.814351227528601
 30
0.0
 11
17.86648934314416
 21
8.272464536005074
 31
0.0
  0
LINE
  5
386
330
1F
100
AcDbEntity
  8
0
100
AcDbLine
 10
19.76149969064163
 20
10.16747488350254
 30
0.0
 11
21.19515705003451
 21
11.60113224289542
 31
0.0
  0
LINE
  5
387
330
1F
100
AcDbEntity
  8
0
100
AcDbLine
 10
23.73295124571865
 20
14.13892643857956
 30
0.0
 11
24.224022987244
 21
14.62999818010491
 31
0.0
  0
LINE
  5
388
330
1F
100
AcDbEntity
  8
0
100
AcDbLine
 10
17.35933483005106
 20
7.840263341717753
 30
0.0
 11
17.81641720863139
 21
8.297345720298079
 31
0.0
  0
LINE
  5
389
330
1F
100
AcDbEntity
  8
0
100
AcDbLine
 10
19.68654637183585
 20
10.16747488350254
 30
0.0
 11
21.19515705003451
 21
11.67608556170119
 31
0.0
  0
LINE
  5
38A
330
1F
100
AcDbEntity
  8
0
100
AcDbLine
 10
23.70871787208912
 20
14.1896463837558
 30
0.0
 11
24.19685164114274
 21
14.67778015280943
 31
0.0
  0
LINE
  5
38B
330
1F
100
AcDbEntity
  8
0
100
AcDbLine
 10
17.31075386338555
 20
7.866635693858009
 30
0.0
 11
17.76691038073426
 21
8.322792211206718
 31
0.0
  0
LINE
  5
38C
330
1F
100
AcDbEntity
  8
0
100
AcDbLine
 10
19.61159305303008
 20
10.16747488350254
 30
0.0
 11
21.1951570500345
 21
11.75103888050696
 31
0.0
  0
LINE
  5
38D
330
1F
100
AcDbEntity
  8
0
100
AcDbLine
 10
23.6839934128291
 20
14.23987524330155
 30
0.0
 11
24.16920086149663
 21
14.72508269196909
 31
0.0
  0
LINE
  5
38E
330
1F
100
AcDbEntity
  8
0
100
AcDbLine
 10
17.26266945737986
 20
7.893504606658089
 30
0.0
 11
17.71812347258862
 21
8.348958621866858
 31
0.0
  0
LINE
  5
38F
330
1F
100
AcDbEntity
  8
0
100
AcDbLine
 10
19.53663973422431
 20
10.16747488350254
 30
0.0
 11
21.19515705003451
 21
11.82599219931274
 31
0.0
  0
LINE
  5
390
330
1F
100
AcDbEntity
  8
0
100
AcDbLine
 10
23.65870785969495
 20
14.28954300897318
 30
0.0
 11
24.14111615260174
 21
14.77195130187997
 31
0.0
  0
LINE
  5
391
330
1F
100
AcDbEntity
  8
0
100
AcDbLine
 10
17.2151470449124
 20
7.920935512996406
 30
0.0
 11
17.66988910229442
 21
8.375677570378432
 31
0.0
  0
LINE
  5
392
330
1F
100
AcDbEntity
  8
0
100
AcDbLine
 10
19.46168641541853
 20
10.16747488350254
 30
0.0
 11
21.19515705003451
 21
11.90094551811851
 31
0.0
  0
LINE
  5
393
330
1F
100
AcDbEntity
  8
0
100
AcDbLine
 10
23.63278760750823
 20
14.33857607559223
 30
0.0
 11
24.11263899244998
 21
14.81842746053399
 31
0.0
  0
LINE
  5
394
330
1F
100
AcDbEntity
  8
0
100
AcDbLine
 10
17.16824691502843
 20
7.948988701918214
 30
0.0
 11
17.62218133749959
 21
8.402923124389376
 31
0.0
  0
LINE
  5
395
330
1F
100
AcDbEntity
  8
0
100
AcDbLine
 10
19.38673309661276
 20
10.16747488350254
 30
0.0
 11
21.19515705003451
 21
11.97589883692429
 31
0.0
  0
LINE
  5
396
330
1F
100
AcDbEntity
  8
0
100
AcDbLine
 10
23.60617243752552
 20
14.3869142244153
 30
0.0
 11
24.08380170281614
 21
14.86454348970592
 31
0.0
  0
LINE
  5
397
330
1F
100
AcDbEntity
  8
0
100
AcDbLine
 10
17.12195441859186
 20
7.977649524287412
 30
0.0
 11
17.57498423240692
 21
8.430679338102475
 31
0.0
  0
LINE
  5
398
330
1F
100
AcDbEntity
  8
0
100
AcDbLine
 10
19.31177977780699
 20
10.16747488350254
 30
0.0
 11
21.19515705003451
 21
12.05085215573006
 31
0.0
  0
LINE
  5
399
330
1F
100
AcDbEntity
  8
0
100
AcDbLine
 10
23.5789355838099
 20
14.43463068950546
 30
0.0
 11
24.05453678505011
 21
14.91023189074567
 31
0.0
  0
LINE
  5
39A
330
1F
100
AcDbEntity
  8
0
100
AcDbLine
 10
17.07621100801235
 20
8.006859432513677
 30
0.0
 11
17.52835419869376
 21
8.45900262319509
 31
0.0
  0
LINE
  5
39B
330
1F
100
AcDbEntity
  8
0
100
AcDbLine
 10
19.23682645900121
 20
10.16747488350254
 30
0.0
 11
21.19515705003451
 21
12.12580547453583
 31
0.0
  0
LINE
  5
39C
330
1F
100
AcDbEntity
  8
0
100
AcDbLine
 10
23.55117813324463
 20
14.48182655774596
 30
0.0
 11
24.02485905249583
 21
14.95550747699715
 31
0.0
  0
LINE
  5
39D
330
1F
100
AcDbEntity
  8
0
100
AcDbLine
 10
17.03094628721739
 20
8.036548030524491
 30
0.0
 11
17.48230481259045
 21
8.487906555897553
 31
0.0
  0
LINE
  5
39E
330
1F
100
AcDbEntity
  8
0
100
AcDbLine
 10
19.16187314019544
 20
10.16747488350254
 30
0.0
 11
21.19515705003451
 21
12.20075879334161
 31
0.0
  0
LINE
  5
39F
330
1F
100
AcDbEntity
  8
0
100
AcDbLine
 10
23.52298564773062
 20
14.52858739103772
 30
0.0
 11
23.99475197615934
 21
15.00035371946644
 31
0.0
  0
LINE
  5
3A0
330
1F
100
AcDbEntity
  8
0
100
AcDbLine
 10
16.98608870549332
 20
8.066643767606198
 30
0.0
 11
17.43670210691852
 21
8.5172571690314
 31
0.0
  0
LINE
  5
3A1
330
1F
100
AcDbEntity
  8
0
100
AcDbLine
 10
19.08691982138967
 20
10.16747488350254
 30
0.0
 11
21.1951570500345
 21
12.27571211214738
 31
0.0
  0
LINE
  5
3A2
330
1F
100
AcDbEntity
  8
0
100
AcDbLine
 10
23.49440656121396
 20
14.57496162332684
 30
0.0
 11
23.96419831844711
 21
15.04475338055999
 31
0.0
  0
LINE
  5
3A3
330
1F
100
AcDbEntity
  8
0
100
AcDbLine
 10
16.94157700963974
 20
8.097085390558384
 30
0.0
 11
17.39153134301813
 21
8.547039723936777
 31
0.0
  0
LINE
  5
3A4
330
1F
100
AcDbEntity
  8
0
100
AcDbLine
 10
19.0119665025839
 20
10.16747488350254
 30
0.0
 11
21.19515705003451
 21
12.35066543095315
 31
0.0
  0
LINE
  5
3A5
330
1F
100
AcDbEntity
  8
0
100
AcDbLine
 10
23.46539814168536
 20
14.620906522604
 30
0.0
 11
23.93321186730252
 21
15.08872024822117
 31
0.0
  0
LINE
  5
3A6
330
1F
100
AcDbEntity
  8
0
100
AcDbLine
 10
16.89737287540505
 20
8.12783457512947
 30
0.0
 11
17.34677897650507
 21
8.577240676229492
 31
0.0
  0
LINE
  5
3A7
330
1F
100
AcDbEntity
  8
0
100
AcDbLine
 10
18.93701318377812
 20
10.16747488350254
 30
0.0
 11
21.19515705003451
 21
12.42561874975893
 31
0.0
  0
LINE
  5
3A8
330
1F
100
AcDbEntity
  8
0
100
AcDbLine
 10
23.43589615327212
 20
14.66635785299654
 30
0.0
 11
23.90181476817753
 21
15.13227646790195
 31
0.0
  0
LINE
  5
3A9
330
1F
100
AcDbEntity
  8
0
100
AcDbLine
 10
16.85348255269928
 20
8.158897571229474
 30
0.0
 11
17.30253703371682
 21
8.607952052247018
 31
0.0
  0
LINE
  5
3AA
330
1F
100
AcDbEntity
  8
0
100
AcDbLine
 10
18.86205986497234
 20
10.16747488350254
 30
0.0
 11
21.1951570500345
 21
12.5005720685647
 31
0.0
  0
LINE
  5
3AB
330
1F
100
AcDbEntity
  8
0
100
AcDbLine
 10
23.40584011257226
 20
14.71125513110245
 30
0.0
 11
23.87003438803748
 21
15.17544940656767
 31
0.0
  0
LINE
  5
3AC
330
1F
100
AcDbEntity
  8
0
100
AcDbLine
 10
16.80994077563522
 20
8.190309112971189
 30
0.0
 11
17.25874238956002
 21
8.639110726895993
 31
0.0
  0
LINE
  5
3AD
330
1F
100
AcDbEntity
  8
0
100
AcDbLine
 10
18.78710654616657
 20
10.16747488350254
 30
0.0
 11
19.94102718225243
 21
11.3213955195884
 31
0.0
  0
LINE
  5
3AE
330
1F
100
AcDbEntity
  8
0
100
AcDbLine
 10
19.94495098929438
 20
11.32531932663035
 30
0.0
 11
21.19515705003451
 21
12.57552538737047
 31
0.0
  0
LINE
  5
3AF
330
1F
100
AcDbEntity
  8
0
100
AcDbLine
 10
23.37520730212029
 20
14.75557563945626
 30
0.0
 11
23.83788652988703
 21
15.218254867223
 31
0.0
  0
LINE
  5
3B0
330
1F
100
AcDbEntity
  8
0
100
AcDbLine
 10
16.76679117626539
 20
8.222112832407136
 30
0.0
 11
17.21540419484875
 21
8.670725850990493
 31
0.0
  0
LINE
  5
3B1
330
1F
100
AcDbEntity
  8
0
100
AcDbLine
 10
18.7121532273608
 20
10.16747488350254
 30
0.0
 11
19.86607386344666
 21
11.3213955195884
 31
0.0
  0
LINE
  5
3B2
330
1F
100
AcDbEntity
  8
0
100
AcDbLine
 10
19.94495098929438
 20
11.40027264543613
 30
0.0
 11
21.19515705003451
 21
12.65047870617625
 31
0.0
  0
LINE
  5
3B3
330
1F
100
AcDbEntity
  8
0
100
AcDbLine
 10
23.34402994525631
 20
14.79935160139805
 30
0.0
 11
23.80535187830331
 21
15.26067353444505
 31
0.0
  0
LINE
  5
3B4
330
1F
100
AcDbEntity
  8
0
100
AcDbLine
 10
16.72401164347593
 20
8.254286618423444
 30
0.0
 11
17.17253179497992
 21
8.70280676992744
 31
0.0
  0
LINE
  5
3B5
330
1F
100
AcDbEntity
  8
0
100
AcDbLine
 10
18.63719990855503
 20
10.16747488350254
 30
0.0
 11
19.79112054464089
 21
11.32139551958841
 31
0.0
  0
LINE
  5
3B6
330
1F
100
AcDbEntity
  8
0
100
AcDbLine
 10
19.94495098929438
 20
11.4752259642419
 30
0.0
 11
21.19515705003451
 21
12.72543202498202
 31
0.0
  0
LINE
  5
3B7
330
1F
100
AcDbEntity
  8
0
100
AcDbLine
 10
23.31235913217077
 20
14.84263410711828
 30
0.0
 11
23.77248305988117
 21
15.30275803482868
 31
0.0
  0
LINE
  5
3B8
330
1F
100
AcDbEntity
  8
0
100
AcDbLine
 10
16.68160895513896
 20
8.286837248892244
 30
0.0
 11
17.13013469430768
 21
8.735362988060968
 31
0.0
  0
LINE
  5
3B9
330
1F
100
AcDbEntity
  8
0
100
AcDbLine
 10
18.56224658974925
 20
10.16747488350254
 30
0.0
 11
19.71616722583511
 21
11.3213955195884
 31
0.0
  0
LINE
  5
3BA
330
1F
100
AcDbEntity
  8
0
100
AcDbLine
 10
19.94495098929438
 20
11.55017928304767
 30
0.0
 11
21.19515705003451
 21
12.8003853437878
 31
0.0
  0
LINE
  5
3BB
330
1F
100
AcDbEntity
  8
0
100
AcDbLine
 10
23.28024331296781
 20
14.8854716067211
 30
0.0
 11
23.73927125234061
 21
15.3444995460939
 31
0.0
  0
LINE
  5
3BC
330
1F
100
AcDbEntity
  8
0
100
AcDbLine
 10
16.63959299371453
 20
8.319774606273592
 30
0.0
 11
17.08822256854308
 21
8.768404181102145
 31
0.0
  0
LINE
  5
3BD
330
1F
100
AcDbEntity
  8
0
100
AcDbLine
 10
18.48729327094348
 20
10.16747488350254
 30
0.0
 11
19.64121390702934
 21
11.3213955195884
 31
0.0
  0
LINE
  5
3BE
330
1F
100
AcDbEntity
  8
0
100
AcDbLine
 10
19.94495098929438
 20
11.62513260185345
 30
0.0
 11
21.19515705003451
 21
12.87533866259357
 31
0.0
  0
LINE
  5
3BF
330
1F
100
AcDbEntity
  8
0
100
AcDbLine
 10
23.24772273455098
 20
14.92790434711004
 30
0.0
 11
23.70570750012409
 21
15.38588911268315
 31
0.0
  0
LINE
  5
3C0
330
1F
100
AcDbEntity
  8
0
100
AcDbLine
 10
16.59797292074204
 20
8.353107852106877
 30
0.0
 11
17.04680527740362
 21
8.801940208768457
 31
0.0
  0
LINE
  5
3C1
330
1F
100
AcDbEntity
  8
0
100
AcDbLine
 10
18.4123399521377
 20
10.16747488350254
 30
0.0
 11
19.56626058822356
 21
11.3213955195884
 31
0.0
  0
LINE
  5
3C2
330
1F
100
AcDbEntity
  8
0
100
AcDbLine
 10
19.94495098929438
 20
11.70008592065922
 30
0.0
 11
21.19515705003451
 21
12.95029198139935
 31
0.0
  0
LINE
  5
3C3
330
1F
100
AcDbEntity
  8
0
100
AcDbLine
 10
23.21481023396614
 20
14.96994516533098
 30
0.0
 11
23.67180716083259
 21
15.42694209219743
 31
0.0
  0
LINE
  5
3C4
330
1F
100
AcDbEntity
  8
0
100
AcDbLine
 10
16.55674169879473
 20
8.386829948965339
 30
0.0
 11
17.00589287754836
 21
8.835981127718973
 31
0.0
  0
LINE
  5
3C5
330
1F
100
AcDbEntity
  8
0
100
AcDbLine
 10
18.33738663333193
 20
10.16747488350254
 30
0.0
 11
19.49130726941779
 21
11.3213955195884
 31
0.0
  0
LINE
  5
3C6
330
1F
100
AcDbEntity
  8
0
100
AcDbLine
 10
19.94495098929438
 20
11.77503923946499
 30
0.0
 11
21.19515705003451
 21
13.02524530020512
 31
0.0
  0
LINE
  5
3C7
330
1F
100
AcDbEntity
  8
0
100
AcDbLine
 10
23.18151416934288
 20
15.01160241951349
 30
0.0
 11
23.63749024477262
 21
15.46757849494324
 31
0.0
  0
LINE
  5
3C8
330
1F
100
AcDbEntity
  8
0
100
AcDbLine
 10
16.51598052541271
 20
8.421022094389095
 30
0.0
 11
16.96549095446212
 21
8.8705325234385
 31
0.0
  0
LINE
  5
3C9
330
1F
100
AcDbEntity
  8
0
100
AcDbLine
 10
18.26243331452616
 20
10.16747488350254
 30
0.0
 11
19.41635395061202
 21
11.3213955195884
 31
0.0
  0
LINE
  5
3CA
330
1F
100
AcDbEntity
  8
0
100
AcDbLine
 10
19.94495098929438
 20
11.84999255827077
 30
0.0
 11
21.19515705003451
 21
13.10019861901089
 31
0.0
  0
LINE
  5
3CB
330
1F
100
AcDbEntity
  8
0
100
AcDbLine
 10
23.14784623533079
 20
15.05288780430717
 30
0.0
 11
23.6027682007015
 21
15.50780976967788
 31
0.0
  0
LINE
  5
3CC
330
1F
100
AcDbEntity
  8
0
100
AcDbLine
 10
16.4756415128081
 20
8.455636400590254
 30
0.0
 11
16.92554246754546
 21
8.905537355327617
 31
0.0
  0
LINE
  5
3CD
330
1F
100
AcDbEntity
  8
0
100
AcDbLine
 10
18.18747999572038
 20
10.16747488350254
 30
0.0
 11
19.34140063180624
 21
11.3213955195884
 31
0.0
  0
LINE
  5
3CE
330
1F
100
AcDbEntity
  8
0
100
AcDbLine
 10
19.94495098929438
 20
11.92494587707654
 30
0.0
 11
21.19515705003451
 21
13.17515193781667
 31
0.0
  0
LINE
  5
3CF
330
1F
100
AcDbEntity
  8
0
100
AcDbLine
 10
23.11378073614932
 20
15.09377562393147
 30
0.0
 11
23.56764313411299
 21
15.54763802189515
 31
0.0
  0
LINE
  5
3D0
330
1F
100
AcDbEntity
  8
0
100
AcDbLine
 10
16.43575152793134
 20
8.490699734519273
 30
0.0
 11
16.88598746360731
 21
8.94093567019524
 31
0.0
  0
LINE
  5
3D1
330
1F
100
AcDbEntity
  8
0
100
AcDbLine
 10
18.11252667691461
 20
10.16747488350254
 30
0.0
 11
19.26644731300047
 21
11.3213955195884
 31
0.0
  0
LINE
  5
3D2
330
1F
100
AcDbEntity
  8
0
100
AcDbLine
 10
19.94495098929438
 20
11.99989919588232
 30
0.0
 11
21.19515705003451
 21
13.25010525662244
 31
0.0
  0
LINE
  5
3D3
330
1F
100
AcDbEntity
  8
0
100
AcDbLine
 10
23.07928811861068
 20
15.13423632519862
 30
0.0
 11
23.53211558466035
 21
15.58706379124828
 31
0.0
  0
LINE
  5
3D4
330
1F
100
AcDbEntity
  8
0
100
AcDbLine
 10
16.39628310981034
 20
8.526184635204052
 30
0.0
 11
16.84676456212979
 21
8.976666087523492
 31
0.0
  0
LINE
  5
3D5
330
1F
100
AcDbEntity
  8
0
100
AcDbLine
 10
18.03757335810883
 20
10.16747488350254
 30
0.0
 11
19.1914939941947
 21
11.3213955195884
 31
0.0
  0
LINE
  5
3D6
330
1F
100
AcDbEntity
  8
0
100
AcDbLine
 10
19.94495098929438
 20
12.07485251468809
 30
0.0
 11
21.19515705003451
 21
13.32505857542821
 31
0.0
  0
LINE
  5
3D7
330
1F
100
AcDbEntity
  8
0
100
AcDbLine
 10
23.04432848281825
 20
15.17423000821196
 30
0.0
 11
23.49614247542018
 21
15.62604400081389
 31
0.0
  0
LINE
  5
3D8
330
1F
100
AcDbEntity
  8
0
100
AcDbLine
 10
16.35728055860806
 20
8.562135402807542
 30
0.0
 11
16.80781280567939
 21
9.01266764987887
 31
0.0
  0
LINE
  5
3D9
330
1F
100
AcDbEntity
  8
0
100
AcDbLine
 10
17.96262003930306
 20
10.16747488350254
 30
0.0
 11
19.11654067538893
 21
11.32139551958841
 31
0.0
  0
LINE
  5
3DA
330
1F
100
AcDbEntity
  8
0
100
AcDbLine
 10
19.94495098929438
 20
12.14980583349386
 30
0.0
 11
21.19515705003451
 21
13.40001189423398
 31
0.0
  0
LINE
  5
3DB
330
1F
100
AcDbEntity
  8
0
100
AcDbLine
 10
23.00879732115826
 20
15.21365216535774
 30
0.0
 11
23.45981226751492
 21
15.6646671117144
 31
0.0
  0
LINE
  5
3DC
330
1F
100
AcDbEntity
  8
0
100
AcDbLine
 10
16.31865158136215
 20
8.5984597443674
 30
0.0
 11
16.76907158145114
 21
9.04887974445639
 31
0.0
  0
LINE
  5
3DD
330
1F
100
AcDbEntity
  8
0
100
AcDbLine
 10
17.88766672049729
 20
10.16747488350254
 30
0.0
 11
19.04158735658315
 21
11.3213955195884
 31
0.0
  0
LINE
  5
3DE
330
1F
100
AcDbEntity
  8
0
100
AcDbLine
 10
19.94495098929438
 20
12.22475915229964
 30
0.0
 11
21.19515705003451
 21
13.47496521303976
 31
0.0
  0
LINE
  5
3DF
330
1F
100
AcDbEntity
  8
0
100
AcDbLine
 10
22.97269336410912
 20
15.25250152711437
 30
0.0
 11
23.42313808961077
 21
15.70294625261602
 31
0.0
  0
LINE
  5
3E0
330
1F
100
AcDbEntity
  8
0
100
AcDbLine
 10
16.28036945546387
 20
8.635130937274896
 30
0.0
 11
16.73048054373447
 21
9.085242025545499
 31
0.0
  0
LINE
  5
3E1
330
1F
100
AcDbEntity
  8
0
100
AcDbLine
 10
17.81271340169151
 20
10.16747488350254
 30
0.0
 11
18.96663403777738
 21
11.3213955195884
 31
0.0
  0
LINE
  5
3E2
330
1F
100
AcDbEntity
  8
0
100
AcDbLine
 10
19.94495098929438
 20
12.29971247110541
 30
0.0
 11
21.19515705003451
 21
13.54991853184553
 31
0.0
  0
LINE
  5
3E3
330
1F
100
AcDbEntity
  8
0
100
AcDbLine
 10
22.93612024067412
 20
15.29088172248514
 30
0.0
 11
23.38626358393388
 21
15.7410250657449
 31
0.0
  0
LINE
  5
3E4
330
1F
100
AcDbEntity
  8
0
100
AcDbLine
 10
16.24228950534589
 20
8.672004305962691
 30
0.0
 11
16.69197953709173
 21
9.121694337708526
 31
0.0
  0
LINE
  5
3E5
330
1F
100
AcDbEntity
  8
0
100
AcDbLine
 10
17.73776008288574
 20
10.16747488350254
 30
0.0
 11
18.8916807189716
 21
11.3213955195884
 31
0.0
  0
LINE
  5
3E6
330
1F
100
AcDbEntity
  8
0
100
AcDbLine
 10
19.94495098929438
 20
12.37466578991118
 30
0.0
 11
21.19515705003451
 21
13.6248718506513
 31
0.0
  0
LINE
  5
3E7
330
1F
100
AcDbEntity
  8
0
100
AcDbLine
 10
22.89917741488306
 20
15.32889221549986
 30
0.0
 11
23.34925128483906
 21
15.77896608545586
 31
0.0
  0
LINE
  5
3E8
330
1F
100
AcDbEntity
  8
0
100
AcDbLine
 10
16.20435217070517
 20
8.70902029012774
 30
0.0
 11
16.65426467262062
 21
9.158932792043194
 31
0.0
  0
LINE
  5
3E9
330
1F
100
AcDbEntity
  8
0
100
AcDbLine
 10
17.66280676407997
 20
10.16747488350254
 30
0.0
 11
18.81672740016583
 21
11.3213955195884
 31
0.0
  0
LINE
  5
3EA
330
1F
100
AcDbEntity
  8
0
100
AcDbLine
 10
19.94495098929438
 20
12.44961910871696
 30
0.0
 11
21.19515705003451
 21
13.69982516945708
 31
0.0
  0
LINE
  5
3EB
330
1F
100
AcDbEntity
  8
0
100
AcDbLine
 10
22.86204522962096
 20
15.36671334904353
 30
0.0
 11
23.31181371684361
 21
15.81648183626618
 31
0.0
  0
LINE
  5
3EC
330
1F
100
AcDbEntity
  8
0
100
AcDbLine
 10
16.1669430880968
 20
8.746564526325152
 30
0.0
 11
16.61737964098078
 21
9.197001079209123
 31
0.0
  0
LINE
  5
3ED
330
1F
100
AcDbEntity
  8
0
100
AcDbLine
 10
17.5878534452742
 20
10.16747488350254
 30
0.0
 11
18.74177408136006
 21
11.3213955195884
 31
0.0
  0
LINE
  5
3EE
330
1F
100
AcDbEntity
  8
0
100
AcDbLine
 10
19.94495098929438
 20
12.52457242752273
 30
0.0
 11
21.19515705003451
 21
13.77477848826285
 31
0.0
  0
LINE
  5
3EF
330
1F
100
AcDbEntity
  8
0
100
AcDbLine
 10
22.82435180590394
 20
15.40397324413229
 30
0.0
 11
23.27391478369758
 21
15.85353622192593
 31
0.0
  0
LINE
  5
3F0
330
1F
100
AcDbEntity
  8
0
100
AcDbLine
 10
16.12995073314578
 20
8.784525490179902
 30
0.0
 11
16.58069464667258
 21
9.235269403706706
 31
0.0
  0
LINE
  5
3F1
330
1F
100
AcDbEntity
  8
0
100
AcDbLine
 10
17.51290012646842
 20
10.16747488350254
 30
0.0
 11
18.66682076255428
 21
11.3213955195884
 31
0.0
  0
LINE
  5
3F2
330
1F
100
AcDbEntity
  8
0
100
AcDbLine
 10
19.94495098929438
 20
12.5995257463285
 30
0.0
 11
21.19515705003451
 21
13.84973180706863
 31
0.0
  0
LINE
  5
3F3
330
1F
100
AcDbEntity
  8
0
100
AcDbLine
 10
22.78625058873619
 20
15.44082534577031
 30
0.0
 11
23.2358520771932
 21
15.89042683422732
 31
0.0
  0
LINE
  5
3F4
330
1F
100
AcDbEntity
  8
0
100
AcDbLine
 10
16.09309941500835
 20
8.822627490848243
 30
0.0
 11
16.54434924564519
 21
9.273877321485086
 31
0.0
  0
LINE
  5
3F5
330
1F
100
AcDbEntity
  8
0
100
AcDbLine
 10
17.43794680766265
 20
10.16747488350254
 30
0.0
 11
18.59186744374851
 21
11.3213955195884
 31
0.0
  0
LINE
  5
3F6
330
1F
100
AcDbEntity
  8
0
100
AcDbLine
 10
19.94495098929438
 20
12.67447906513428
 30
0.0
 11
21.1951570500345
 21
13.9246851258744
 31
0.0
  0
LINE
  5
3F7
330
1F
100
AcDbEntity
  8
0
100
AcDbLine
 10
22.74797949150935
 20
15.47750756734924
 30
0.0
 11
23.19754816543999
 21
15.92707624127988
 31
0.0
  0
LINE
  5
3F8
330
1F
100
AcDbEntity
  8
0
100
AcDbLine
 10
16.05648115759117
 20
8.860962552236838
 30
0.0
 11
16.50851338220728
 21
9.312994776852952
 31
0.0
  0
LINE
  5
3F9
330
1F
100
AcDbEntity
  8
0
100
AcDbLine
 10
17.36299348885688
 20
10.16747488350254
 30
0.0
 11
18.51691412494274
 21
11.3213955195884
 31
0.0
  0
LINE
  5
3FA
330
1F
100
AcDbEntity
  8
0
100
AcDbLine
 10
19.94495098929438
 20
12.74943238394005
 30
0.0
 11
21.19515705003451
 21
13.99963844468017
 31
0.0
  0
LINE
  5
3FB
330
1F
100
AcDbEntity
  8
0
100
AcDbLine
 10
22.70943099251775
 20
15.51391238716342
 30
0.0
 11
23.15883789153157
 21
15.96331928617724
 31
0.0
  0
LINE
  5
3FC
330
1F
100
AcDbEntity
  8
0
100
AcDbLine
 10
16.02020001225017
 20
8.899634725701612
 30
0.0
 11
16.47317223038275
 21
9.352606943834196
 31
0.0
  0
LINE
  5
3FD
330
1F
100
AcDbEntity
  8
0
100
AcDbLine
 10
17.2880401700511
 20
10.16747488350254
 30
0.0
 11
18.44196080613696
 21
11.3213955195884
 31
0.0
  0
LINE
  5
3FE
330
1F
100
AcDbEntity
  8
0
100
AcDbLine
 10
19.94495098929438
 20
12.82438570274582
 30
0.0
 11
21.19515705003451
 21
14.07459176348595
 31
0.0
  0
LINE
  5
3FF
330
1F
100
AcDbEntity
  8
0
100
AcDbLine
 10
22.67047260292491
 20
15.54990731637635
 30
0.0
 11
23.11970551403125
 21
15.99914022748269
 31
0.0
  0
LINE
  5
400
330
1F
100
AcDbEntity
  8
0
100
AcDbLine
 10
15.98430511038309
 20
8.93869314264031
 30
0.0
 11
16.43838941972689
 21
9.392777451984102
 31
0.0
  0
LINE
  5
401
330
1F
100
AcDbEntity
  8
0
100
AcDbLine
 10
17.21308685124533
 20
10.16747488350254
 30
0.0
 11
18.36700748733119
 21
11.3213955195884
 31
0.0
  0
LINE
  5
402
330
1F
100
AcDbEntity
  8
0
100
AcDbLine
 10
19.94495098929438
 20
12.8993390215516
 30
0.0
 11
21.1951570500345
 21
14.14954508229172
 31
0.0
  0
LINE
  5
403
330
1F
100
AcDbEntity
  8
0
100
AcDbLine
 10
22.63107272440017
 20
15.58546075665739
 30
0.0
 11
23.08004222912989
 21
16.03443026138711
 31
0.0
  0
LINE
  5
404
330
1F
100
AcDbEntity
  8
0
100
AcDbLine
 10
15.94888400839412
 20
8.978225359457104
 30
0.0
 11
16.40403033161315
 21
9.433371682676135
 31
0.0
  0
LINE
  5
405
330
1F
100
AcDbEntity
  8
0
100
AcDbLine
 10
17.13813353243955
 20
10.16747488350254
 30
0.0
 11
18.29205416852541
 21
11.3213955195884
 31
0.0
  0
LINE
  5
406
330
1F
100
AcDbEntity
  8
0
100
AcDbLine
 10
19.94495098929438
 20
12.97429234035737
 30
0.0
 11
21.19515705003451
 21
14.2244984010975
 31
0.0
  0
LINE
  5
407
330
1F
100
AcDbEntity
  8
0
100
AcDbLine
 10
22.59120414107046
 20
15.62054549213345
 30
0.0
 11
23.03996065841391
 21
16.0693020094769
 31
0.0
  0
LINE
  5
408
330
1F
100
AcDbEntity
  8
0
100
AcDbLine
 10
15.9138693494591
 20
9.01816401932786
 30
0.0
 11
16.3701236728539
 21
9.474418342722664
 31
0.0
  0
LINE
  5
409
330
1F
100
AcDbEntity
  8
0
100
AcDbLine
 10
17.06318021363378
 20
10.16747488350254
 30
0.0
 11
18.21710084971964
 21
11.3213955195884
 31
0.0
  0
LINE
  5
40A
330
1F
100
AcDbEntity
  8
0
100
AcDbLine
 10
19.94495098929438
 20
13.04924565916314
 30
0.0
 11
21.19515705003451
 21
14.29945171990327
 31
0.0
  0
LINE
  5
40B
330
1F
100
AcDbEntity
  8
0
100
AcDbLine
 10
22.55084934902005
 20
15.65514401888881
 30
0.0
 11
22.99943772616826
 21
16.10373239603702
 31
0.0
  0
LINE
  5
40C
330
1F
100
AcDbEntity
  8
0
100
AcDbLine
 10
15.87934084877872
 20
9.058588837453259
 30
0.0
 11
16.33658492954783
 21
9.515832918222362
 31
0.0
  0
LINE
  5
40D
330
1F
100
AcDbEntity
  8
0
100
AcDbLine
 10
16.98822689482801
 20
10.16747488350254
 30
0.0
 11
18.14214753091387
 21
11.3213955195884
 31
0.0
  0
LINE
  5
40E
330
1F
100
AcDbEntity
  8
0
100
AcDbLine
 10
19.94495098929438
 20
13.12419897796892
 30
0.0
 11
21.19515705003451
 21
14.37440503870904
 31
0.0
  0
LINE
  5
40F
330
1F
100
AcDbEntity
  8
0
100
AcDbLine
 10
22.51002856822552
 20
15.68927655690005
 30
0.0
 11
22.95855506029834
 21
16.13780304897287
 31
0.0
  0
LINE
  5
410
330
1F
100
AcDbEntity
  8
0
100
AcDbLine
 10
15.84521245326608
 20
9.099413760746394
 30
0.0
 11
16.30346403290902
 21
9.557665340389324
 31
0.0
  0
LINE
  5
411
330
1F
100
AcDbEntity
  8
0
100
AcDbLine
 10
16.91327357602223
 20
10.16747488350254
 30
0.0
 11
18.2103472200811
 21
11.46454852756141
 31
0.0
  0
LINE
  5
412
330
1F
100
AcDbEntity
  8
0
100
AcDbLine
 10
19.94495098929438
 20
13.19915229677469
 30
0.0
 11
21.19515705003451
 21
14.44935835751482
 31
0.0
  0
LINE
  5
413
330
1F
100
AcDbEntity
  8
0
100
AcDbLine
 10
22.46875787680298
 20
15.72295918428329
 30
0.0
 11
22.9172824283996
 21
16.17148373587991
 31
0.0
  0
LINE
  5
414
330
1F
100
AcDbEntity
  8
0
100
AcDbLine
 10
15.8115850842962
 20
9.140739710582281
 30
0.0
 11
16.27079602506615
 21
9.59995065135224
 31
0.0
  0
LINE
  5
415
330
1F
100
AcDbEntity
  8
0
100
AcDbLine
 10
16.87886199794703
 20
10.20801662423312
 30
0.0
 11
18.3224529255945
 21
11.65160755188058
 31
0.0
  0
LINE
  5
416
330
1F
100
AcDbEntity
  8
0
100
AcDbLine
 10
19.94495098929438
 20
13.27410561558047
 30
0.0
 11
21.19515705003451
 21
14.52431167632059
 31
0.0
  0
LINE
  5
417
330
1F
100
AcDbEntity
  8
0
100
AcDbLine
 10
22.42703894469416
 20
15.75619357098024
 30
0.0
 11
22.87567576248592
 21
16.204830388772
 31
0.0
  0
LINE
  5
418
330
1F
100
AcDbEntity
  8
0
100
AcDbLine
 10
15.77835805436348
 20
9.182465999455333
 30
0.0
 11
16.23861478194693
 21
9.642722727038787
 31
0.0
  0
LINE
  5
419
330
1F
100
AcDbEntity
  8
0
100
AcDbLine
 10
16.87886199794704
 20
10.28296994303889
 30
0.0
 11
18.43455863110789
 21
11.83866657619975
 31
0.0
  0
LINE
  5
41A
330
1F
100
AcDbEntity
  8
0
100
AcDbLine
 10
19.94495098929438
 20
13.34905893438624
 30
0.0
 11
21.19515705003451
 21
14.59926499512636
 31
0.0
  0
LINE
  5
41B
330
1F
100
AcDbEntity
  8
0
100
AcDbLine
 10
22.38489087593307
 20
15.78899882102492
 30
0.0
 11
22.83371058268758
 21
16.23781852777943
 31
0.0
  0
LINE
  5
41C
330
1F
100
AcDbEntity
  8
0
100
AcDbLine
 10
15.74550154014651
 20
9.224562804044142
 30
0.0
 11
16.20694246222712
 21
9.686003726124747
 31
0.0
  0
LINE
  5
41D
330
1F
100
AcDbEntity
  8
0
100
AcDbLine
 10
16.87886199794704
 20
10.35792326184467
 30
0.0
 11
18.54666433662128
 21
12.02572560051891
 31
0.0
  0
LINE
  5
41E
330
1F
100
AcDbEntity
  8
0
100
AcDbLine
 10
19.94495098929438
 20
13.42401225319201
 30
0.0
 11
21.19515705003451
 21
14.67421831393214
 31
0.0
  0
LINE
  5
41F
330
1F
100
AcDbEntity
  8
0
100
AcDbLine
 10
22.34233245825568
 20
15.82139372215331
 30
0.0
 11
22.7913709100265
 21
16.27043217392414
 31
0.0
  0
LINE
  5
420
330
1F
100
AcDbEntity
  8
0
100
AcDbLine
 10
15.71298671748509
 20
9.267001300188497
 30
0.0
 11
16.17577341133996
 21
9.72978799404336
 31
0.0
  0
LINE
  5
421
330
1F
100
AcDbEntity
  8
0
100
AcDbLine
 10
16.87886199794704
 20
10.43287658065044
 30
0.0
 11
18.65877004213467
 21
12.21278462483808
 31
0.0
  0
LINE
  5
422
330
1F
100
AcDbEntity
  8
0
100
AcDbLine
 10
19.94495098929438
 20
13.49896557199779
 30
0.0
 11
21.19515705003451
 21
14.74917163273791
 31
0.0
  0
LINE
  5
423
330
1F
100
AcDbEntity
  8
0
100
AcDbLine
 10
22.2993705173243
 20
15.8533851000277
 30
0.0
 11
22.74864163978741
 21
16.30265622249081
 31
0.0
  0
LINE
  5
424
330
1F
100
AcDbEntity
  8
0
100
AcDbLine
 10
15.68078799907091
 20
9.309755900580088
 30
0.0
 11
16.14509632516589
 21
9.774064226675069
 31
0.0
  0
LINE
  5
425
330
1F
100
AcDbEntity
  8
0
100
AcDbLine
 10
16.87886199794704
 20
10.50782989945621
 30
0.0
 11
18.77087574764806
 21
12.39984364915724
 31
0.0
  0
LINE
  5
426
330
1F
100
AcDbEntity
  8
0
100
AcDbLine
 10
19.94495098929438
 20
13.57391889080356
 30
0.0
 11
21.19515705003451
 21
14.82412495154368
 31
0.0
  0
LINE
  5
427
330
1F
100
AcDbEntity
  8
0
100
AcDbLine
 10
22.25597904924567
 20
15.88494695075484
 30
0.0
 11
22.70550245762979
 21
16.33447035913896
 31
0.0
  0
LINE
  5
428
330
1F
100
AcDbEntity
  8
0
100
AcDbLine
 10
15.64889952389662
 20
9.352820744211575
 30
0.0
 11
16.11490000085879
 21
9.818821221173737
 31
0.0
  0
LINE
  5
429
330
1F
100
AcDbEntity
  8
0
100
AcDbLine
 10
16.87886199794704
 20
10.58278321826199
 30
0.0
 11
18.88298145316145
 21
12.5869026734764
 31
0.0
  0
LINE
  5
42A
330
1F
100
AcDbEntity
  8
0
100
AcDbLine
 10
19.94495098929438
 20
13.64887220960934
 30
0.0
 11
21.19515705003451
 21
14.89907827034946
 31
0.0
  0
LINE
  5
42B
330
1F
100
AcDbEntity
  8
0
100
AcDbLine
 10
22.21212053869179
 20
15.91604175900674
 30
0.0
 11
22.66189222729487
 21
16.36581344760982
 31
0.0
  0
LINE
  5
42C
330
1F
100
AcDbEntity
  8
0
100
AcDbLine
 10
15.61733609941086
 20
9.396210638531583
 30
0.0
 11
16.08518457132481
 21
9.864059110445538
 31
0.0
  0
LINE
  5
42D
330
1F
100
AcDbEntity
  8
0
100
AcDbLine
 10
16.87886199794704
 20
10.65773653706776
 30
0.0
 11
18.99508715867485
 21
12.77396169779557
 31
0.0
  0
LINE
  5
42E
330
1F
100
AcDbEntity
  8
0
100
AcDbLine
 10
19.94495098929438
 20
13.72382552841511
 30
0.0
 11
21.19515705003451
 21
14.97403158915523
 31
0.0
  0
LINE
  5
42F
330
1F
100
AcDbEntity
  8
0
100
AcDbLine
 10
22.16775663276095
 20
15.94663117188167
 30
0.0
 11
22.61784402361905
 21
16.39671856273978
 31
0.0
  0
LINE
  5
430
330
1F
100
AcDbEntity
  8
0
100
AcDbLine
 10
15.58615650488187
 20
9.439984362808367
 30
0.0
 11
16.05595711639699
 21
9.90978497432349
 31
0.0
  0
LINE
  5
431
330
1F
100
AcDbEntity
  8
0
100
AcDbLine
 10
16.87886199794704
 20
10.73268985587353
 30
0.0
 11
19.10719286418824
 21
12.96102072211473
 31
0.0
  0
LINE
  5
432
330
1F
100
AcDbEntity
  8
0
100
AcDbLine
 10
19.94495098929438
 20
13.79877884722088
 30
0.0
 11
21.19515705003451
 21
15.048984907961
 31
0.0
  0
LINE
  5
433
330
1F
100
AcDbEntity
  8
0
100
AcDbLine
 10
22.12285481941456
 20
15.97668267734105
 30
0.0
 11
22.57336992704833
 21
16.42719778497483
 31
0.0
  0
LINE
  5
434
330
1F
100
AcDbEntity
  8
0
100
AcDbLine
 10
15.55538861493777
 20
9.48416979167004
 30
0.0
 11
16.02723090262174
 21
9.956012079354013
 31
0.0
  0
LINE
  5
435
330
1F
100
AcDbEntity
  8
0
100
AcDbLine
 10
16.87886199794704
 20
10.80764317467931
 30
0.0
 11
19.21929856970163
 21
13.1480797464339
 31
0.0
  0
LINE
  5
436
330
1F
100
AcDbEntity
  8
0
100
AcDbLine
 10
19.94495098929438
 20
13.87373216602666
 30
0.0
 11
21.19515705003451
 21
15.12393822676678
 31
0.0
  0
LINE
  5
437
330
1F
100
AcDbEntity
  8
0
100
AcDbLine
 10
22.07742409471551
 20
16.00620527144778
 30
0.0
 11
22.52846708735782
 21
16.4572482640901
 31
0.0
  0
LINE
  5
438
330
1F
100
AcDbEntity
  8
0
100
AcDbLine
 10
15.52503242399286
 20
9.528766919530907
 30
0.0
 11
15.99902057053244
 21
10.00275506607048
 31
0.0
  0
LINE
  5
439
330
1F
100
AcDbEntity
  8
0
100
AcDbLine
 10
16.87886199794704
 20
10.88259649348508
 30
0.0
 11
19.33140427521502
 21
13.33513877075306
 31
0.0
  0
LINE
  5
43A
330
1F
100
AcDbEntity
  8
0
100
AcDbLine
 10
19.94495098929438
 20
13.94868548483243
 30
0.0
 11
21.19515705003451
 21
15.19889154557255
 31
0.0
  0
LINE
  5
43B
330
1F
100
AcDbEntity
  8
0
100
AcDbLine
 10
22.03147992827065
 20
16.0352144238087
 30
0.0
 11
22.48313011710104
 21
16.48686461263908
 31
0.0
  0
LINE
  5
43C
330
1F
100
AcDbEntity
  8
0
100
AcDbLine
 10
15.49511763619879
 20
9.573805450542608
 30
0.0
 11
15.97134430461606
 21
10.05003211895988
 31
0.0
  0
LINE
  5
43D
330
1F
100
AcDbEntity
  8
0
100
AcDbLine
 10
16.87886199794704
 20
10.95754981229086
 30
0.0
 11
19.44350998072841
 21
13.52219779507223
 31
0.0
  0
LINE
  5
43E
330
1F
100
AcDbEntity
  8
0
100
AcDbLine
 10
19.94495098929438
 20
14.0236388036382
 30
0.0
 11
21.19515705003451
 21
15.27384486437832
 31
0.0
  0
LINE
  5
43F
330
1F
100
AcDbEntity
  8
0
100
AcDbLine
 10
21.98503780112527
 20
16.06372561546908
 30
0.0
 11
22.43736250879071
 21
16.51605032313453
 31
0.0
  0
LINE
  5
440
330
1F
100
AcDbEntity
  8
0
100
AcDbLine
 10
15.46567367362223
 20
9.619314806771824
 30
0.0
 11
15.94422710758765
 21
10.09786824073724
 31
0.0
  0
LINE
  5
441
330
1F
100
AcDbEntity
  8
0
100
AcDbLine
 10
16.87886199794704
 20
11.03250313109663
 30
0.0
 11
19.5556156862418
 21
13.70925681939139
 31
0.0
  0
LINE
  5
442
330
1F
100
AcDbEntity
  8
0
100
AcDbLine
 10
19.94495098929438
 20
14.09859212244397
 30
0.0
 11
21.1951570500345
 21
15.3487981831841
 31
0.0
  0
LINE
  5
443
330
1F
100
AcDbEntity
  8
0
100
AcDbLine
 10
21.93810325981899
 20
16.09174439296858
 30
0.0
 11
22.39116734388438
 21
16.54480847703397
 31
0.0
  0
LINE
  5
444
330
1F
100
AcDbEntity
  8
0
100
AcDbLine
 10
15.43673145145779
 20
9.66532590341316
 30
0.0
 11
15.91769587681415
 21
10.14629032876952
 31
0.0
  0
LINE
  5
445
330
1F
100
AcDbEntity
  8
0
100
AcDbLine
 10
16.87886199794704
 20
11.1074564499024
 30
0.0
 11
19.66772139175519
 21
13.89631584371056
 31
0.0
  0
LINE
  5
446
330
1F
100
AcDbEntity
  8
0
100
AcDbLine
 10
19.94495098929438
 20
14.17354544124975
 30
0.0
 11
21.19515705003451
 21
15.42375150198987
 31
0.0
  0
LINE
  5
447
330
1F
100
AcDbEntity
  8
0
100
AcDbLine
 10
21.89066680593914
 20
16.1192612578945
 30
0.0
 11
22.34454724845
 21
16.57314170040537
 31
0.0
  0
LINE
  5
448
330
1F
100
AcDbEntity
  8
0
100
AcDbLine
 10
15.40831783513952
 20
9.711865605900664
 30
0.0
 11
15.89177277584863
 21
10.19532054660977
 31
0.0
  0
LINE
  5
449
330
1F
100
AcDbEntity
  8
0
100
AcDbLine
 10
16.87886199794704
 20
11.18240976870818
 30
0.0
 11
19.77982709726858
 21
14.08337486802972
 31
0.0
  0
LINE
  5
44A
330
1F
100
AcDbEntity
  8
0
100
AcDbLine
 10
19.94495098929438
 20
14.24849876005552
 30
0.0
 11
21.19515705003451
 21
15.49870482079564
 31
0.0
  0
LINE
  5
44B
330
1F
100
AcDbEntity
  8
0
100
AcDbLine
 10
21.84271030287477
 20
16.14625807363591
 30
0.0
 11
22.29749249507909
 21
16.60104026584023
 31
0.0
  0
LINE
  5
44C
330
1F
100
AcDbEntity
  8
0
100
AcDbLine
 10
15.3804501027075
 20
9.75895119227441
 30
0.0
 11
15.86645303190078
 21
10.2449541214677
 31
0.0
  0
LINE
  5
44D
330
1F
100
AcDbEntity
  8
0
100
AcDbLine
 10
16.88313242772728
 20
11.2616335172942
 30
0.0
 11
19.89193280278197
 21
14.27043389234889
 31
0.0
  0
LINE
  5
44E
330
1F
100
AcDbEntity
  8
0
100
AcDbLine
 10
19.94495098929438
 20
14.3234520788613
 30
0.0
 11
21.19515705003451
 21
15.57365813960142
 31
0.0
  0
LINE
  5
44F
330
1F
100
AcDbEntity
  8
0
100
AcDbLine
 10
21.79421516423655
 20
16.17271625380346
 30
0.0
 11
22.24994939269471
 21
16.62845048226162
 31
0.0
  0
LINE
  5
450
330
1F
100
AcDbEntity
  8
0
100
AcDbLine
 10
15.35310059178878
 20
9.806555000161465
 30
0.0
 11
15.8417018847712
 21
10.29515629314388
 31
0.0
  0
LINE
  5
451
330
1F
100
AcDbEntity
  8
0
100
AcDbLine
 10
17.03105888959704
 20
11.48451329796973
 30
0.0
 11
21.19515705003451
 21
15.64861145840719
 31
0.0
  0
LINE
  5
452
330
1F
100
AcDbEntity
  8
0
100
AcDbLine
 10
21.74516910574999
 20
16.19862351412268
 30
0.0
 11
22.20194490984073
 21
16.65539931821342
 31
0.0
  0
LINE
  5
453
330
1F
100
AcDbEntity
  8
0
100
AcDbLine
 10
15.32623311860163
 20
9.854640845780088
 30
0.0
 11
15.81747903340647
 21
10.34588676058494
 31
0.0
  0
LINE
  5
454
330
1F
100
AcDbEntity
  8
0
100
AcDbLine
 10
17.1789853514668
 20
11.70739307864526
 30
0.0
 11
21.19515705003451
 21
15.72356477721297
 31
0.0
  0
LINE
  5
455
330
1F
100
AcDbEntity
  8
0
100
AcDbLine
 10
21.69556848150008
 20
16.22397620867854
 30
0.0
 11
22.15345926496957
 21
16.68186699214803
 31
0.0
  0
LINE
  5
456
330
1F
100
AcDbEntity
  8
0
100
AcDbLine
 10
15.29984604185304
 20
9.903207087837277
 30
0.0
 11
15.79375543306228
 21
10.39711647904652
 31
0.0
  0
LINE
  5
457
330
1F
100
AcDbEntity
  8
0
100
AcDbLine
 10
17.32691181333656
 20
11.9302728593208
 30
0.0
 11
21.1951570500345
 21
15.79851809601874
 31
0.0
  0
LINE
  5
458
330
1F
100
AcDbEntity
  8
0
100
AcDbLine
 10
21.64541281729439
 20
16.24877386327862
 30
0.0
 11
22.10447744766273
 21
16.70783849364697
 31
0.0
  0
LINE
  5
459
330
1F
100
AcDbEntity
  8
0
100
AcDbLine
 10
15.27386900403177
 20
9.952183368821782
 30
0.0
 11
15.77056110075822
 21
10.44887546554822
 31
0.0
  0
LINE
  5
45A
330
1F
100
AcDbEntity
  8
0
100
AcDbLine
 10
17.47483827520632
 20
12.15315263999633
 30
0.0
 11
21.14893813666416
 21
15.82725250145416
 31
0.0
  0
LINE
  5
45B
330
1F
100
AcDbEntity
  8
0
100
AcDbLine
 10
21.59470098533193
 20
16.27301535012193
 30
0.0
 11
22.05499597718014
 21
16.73331034197014
 31
0.0
  0
LINE
  5
45C
330
1F
100
AcDbEntity
  8
0
100
AcDbLine
 10
15.24831629258028
 20
10.00158397617607
 30
0.0
 11
15.74796376318783
 21
10.50123144678361
 31
0.0
  0
LINE
  5
45D
330
1F
100
AcDbEntity
  8
0
100
AcDbLine
 10
17.62276473707608
 20
12.37603242067186
 30
0.0
 11
21.07398481785838
 21
15.82725250145416
 31
0.0
  0
LINE
  5
45E
330
1F
100
AcDbEntity
  8
0
100
AcDbLine
 10
21.543420495056
 20
16.29668817865178
 30
0.0
 11
22.00502455200397
 21
16.75829223559975
 31
0.0
  0
LINE
  5
45F
330
1F
100
AcDbEntity
  8
0
100
AcDbLine
 10
15.22321428384794
 20
10.0514352862495
 30
0.0
 11
15.72608851974244
 21
10.554309522144
 31
0.0
  0
LINE
  5
460
330
1F
100
AcDbEntity
  8
0
100
AcDbLine
 10
17.77069119894584
 20
12.5989122013474
 30
0.0
 11
20.99903149905261
 21
15.82725250145416
 31
0.0
  0
LINE
  5
461
330
1F
100
AcDbEntity
  8
0
100
AcDbLine
 10
21.49155057949919
 20
16.31977158190075
 30
0.0
 11
21.9545748912453
 21
16.78279589364686
 31
0.0
  0
LINE
  5
462
330
1F
100
AcDbEntity
  8
0
100
AcDbLine
 10
15.19859171875521
 20
10.10176603996254
 30
0.0
 11
15.70494176331005
 21
10.60811608451738
 31
0.0
  0
LINE
  5
463
330
1F
100
AcDbEntity
  8
0
100
AcDbLine
 10
17.9186176608156
 20
12.82179198202293
 30
0.0
 11
20.92407818024683
 21
15.82725250145416
 31
0.0
  0
LINE
  5
464
330
1F
100
AcDbEntity
  8
0
100
AcDbLine
 10
21.43906582324812
 20
16.34224014445545
 30
0.0
 11
21.90365614240516
 21
16.80683046361249
 31
0.0
  0
LINE
  5
465
330
1F
100
AcDbEntity
  8
0
100
AcDbLine
 10
15.17447519840615
 20
10.15260283841925
 30
0.0
 11
15.68451425050953
 21
10.66264189052263
 31
0.0
  0
LINE
  5
466
330
1F
100
AcDbEntity
  8
0
100
AcDbLine
 10
18.06654412268536
 20
13.04467176269846
 30
0.0
 11
20.84912486144106
 21
15.82725250145416
 31
0.0
  0
LINE
  5
467
330
1F
100
AcDbEntity
  8
0
100
AcDbLine
 10
21.38594031294412
 20
16.36406795295722
 30
0.0
 11
21.85226682446613
 21
16.83039446447924
 31
0.0
  0
LINE
  5
468
330
1F
100
AcDbEntity
  8
0
100
AcDbLine
 10
15.15087399467451
 20
10.20395495349339
 30
0.0
 11
15.66477946109868
 21
10.71786041991755
 31
0.0
  0
LINE
  5
469
330
1F
100
AcDbEntity
  8
0
100
AcDbLine
 10
18.21447058455512
 20
13.267551543374
 30
0.0
 11
20.77417154263529
 21
15.82725250145416
 31
0.0
  0
LINE
  5
46A
330
1F
100
AcDbEntity
  8
0
100
AcDbLine
 10
21.33215258834907
 20
16.38523354716795
 30
0.0
 11
21.80038158204413
 21
16.85346254086301
 31
0.0
  0
LINE
  5
46B
330
1F
100
AcDbEntity
  8
0
100
AcDbLine
 10
15.12778782947359
 20
10.25582210709824
 30
0.0
 11
15.64571066918155
 21
10.7737449468062
 31
0.0
  0
LINE
  5
46C
330
1F
100
AcDbEntity
  8
0
100
AcDbLine
 10
18.36239704642488
 20
13.49043132404953
 30
0.0
 11
20.69921822382952
 21
15.82725250145416
 31
0.0
  0
LINE
  5
46D
330
1F
100
AcDbEntity
  8
0
100
AcDbLine
 10
21.27768352767383
 20
16.40571780529848
 30
0.0
 11
21.74796859505177
 21
16.87600287267642
 31
0.0
  0
LINE
  5
46E
330
1F
100
AcDbEntity
  8
0
100
AcDbLine
 10
15.10521344375208
 20
10.3082010401825
 30
0.0
 11
15.62729113088703
 21
10.83027872731745
 31
0.0
  0
LINE
  5
46F
330
1F
100
AcDbEntity
  8
0
100
AcDbLine
 10
18.51032350829464
 20
13.71331110472506
 30
0.0
 11
20.62426490502374
 21
15.82725250145416
 31
0.0
  0
LINE
  5
470
330
1F
100
AcDbEntity
  8
0
100
AcDbLine
 10
21.22248105842833
 20
16.42546865485875
 30
0.0
 11
21.69499447591384
 21
16.89798207234427
 31
0.0
  0
LINE
  5
471
330
1F
100
AcDbEntity
  8
0
100
AcDbLine
 10
15.08314980404452
 20
10.36109071928071
 30
0.0
 11
15.60951398557048
 21
10.88745490080668
 31
0.0
  0
LINE
  5
472
330
1F
100
AcDbEntity
  8
0
100
AcDbLine
 10
18.6582499701644
 20
13.9361908854006
 30
0.0
 11
20.54931158621796
 21
15.82725250145416
 31
0.0
  0
LINE
  5
473
330
1F
100
AcDbEntity
  8
0
100
AcDbLine
 10
21.16653295940504
 20
16.44447387464124
 30
0.0
 11
21.64142505147082
 21
16.91936596670701
 31
0.0
  0
LINE
  5
474
330
1F
100
AcDbEntity
  8
0
100
AcDbLine
 10
15.0616146351358
 20
10.41450886917777
 30
0.0
 11
15.5923743617502
 21
10.94526859579217
 31
0.0
  0
LINE
  5
475
330
1F
100
AcDbEntity
  8
0
100
AcDbLine
 10
18.80617643203416
 20
14.15907066607613
 30
0.0
 11
20.47435826741219
 21
15.82725250145416
 31
0.0
  0
LINE
  5
476
330
1F
100
AcDbEntity
  8
0
100
AcDbLine
 10
21.10990388352111
 20
16.46279811756308
 30
0.0
 11
21.58722909079824
 21
16.94012332484021
 31
0.0
  0
LINE
  5
477
330
1F
100
AcDbEntity
  8
0
100
AcDbLine
 10
15.04064442888814
 20
10.46849198173588
 30
0.0
 11
15.57589720463732
 21
11.00374475748506
 31
0.0
  0
LINE
  5
478
330
1F
100
AcDbEntity
  8
0
100
AcDbLine
 10
18.95410289390392
 20
14.38195044675166
 30
0.0
 11
20.39940494860642
 21
15.82725250145416
 31
0.0
  0
LINE
  5
479
330
1F
100
AcDbEntity
  8
0
100
AcDbLine
 10
21.05263767018776
 20
16.4804852230355
 30
0.0
 11
21.53243515469364
 21
16.96028270754138
 31
0.0
  0
LINE
  5
47A
330
1F
100
AcDbEntity
  8
0
100
AcDbLine
 10
15.02028447568723
 20
10.52308534734074
 30
0.0
 11
15.56011198072126
 21
11.06291285237477
 31
0.0
  0
LINE
  5
47B
330
1F
100
AcDbEntity
  8
0
100
AcDbLine
 10
19.10202935577368
 20
14.6048302274272
 30
0.0
 11
20.32445162980065
 21
15.82725250145416
 31
0.0
  0
LINE
  5
47C
330
1F
100
AcDbEntity
  8
0
100
AcDbLine
 10
20.99477219124329
 20
16.49757306289681
 30
0.0
 11
21.47704017621358
 21
16.9798410478671
 31
0.0
  0
LINE
  5
47D
330
1F
100
AcDbEntity
  8
0
100
AcDbLine
 10
15.00057926816791
 20
10.5783334586272
 30
0.0
 11
15.544987330962
 21
11.12274152142129
 31
0.0
  0
LINE
  5
47E
330
1F
100
AcDbEntity
  8
0
100
AcDbLine
 10
19.24995581764344
 20
14.82771000810273
 30
0.0
 11
20.24949831099487
 21
15.82725250145416
 31
0.0
  0
LINE
  5
47F
330
1F
100
AcDbEntity
  8
0
100
AcDbLine
 10
20.93630018081554
 20
16.51405437127483
 30
0.0
 11
21.42104455546765
 21
16.99879874592694
 31
0.0
  0
LINE
  5
480
330
1F
100
AcDbEntity
  8
0
100
AcDbLine
 10
14.98154433177528
 20
10.63425184104035
 30
0.0
 11
15.53054031992168
 21
11.18324782918675
 31
0.0
  0
LINE
  5
481
330
1F
100
AcDbEntity
  8
0
100
AcDbLine
 10
19.3978822795132
 20
15.05058978877826
 30
0.0
 11
20.1745449921891
 21
15.82725250145416
 31
0.0
  0
LINE
  5
482
330
1F
100
AcDbEntity
  8
0
100
AcDbLine
 10
20.8771609015562
 20
16.52986841082126
 30
0.0
 11
21.36446586823032
 21
17.01717337749538
 31
0.0
  0
LINE
  5
483
330
1F
100
AcDbEntity
  8
0
100
AcDbLine
 10
14.96314788529604
 20
10.69080871336688
 30
0.0
 11
15.51679219364564
 21
11.24445302171648
 31
0.0
  0
LINE
  5
484
330
1F
100
AcDbEntity
  8
0
100
AcDbLine
 10
19.54580874138295
 20
15.27346956945379
 30
0.0
 11
20.09959167338332
 21
15.82725250145416
 31
0.0
  0
LINE
  5
485
330
1F
100
AcDbEntity
  8
0
100
AcDbLine
 10
20.81727968617487
 20
16.54494051424571
 30
0.0
 11
21.30732846580154
 21
17.03498929387238
 31
0.0
  0
LINE
  5
486
330
1F
100
AcDbEntity
  8
0
100
AcDbLine
 10
14.9453410978142
 20
10.74795524469081
 30
0.0
 11
15.50378008889034
 21
11.30639423576695
 31
0.0
  0
LINE
  5
487
330
1F
100
AcDbEntity
  8
0
100
AcDbLine
 10
19.69373520325272
 20
15.49634935012933
 30
0.0
 11
20.02463835457755
 21
15.82725250145416
 31
0.0
  0
LINE
  5
488
330
1F
100
AcDbEntity
  8
0
100
AcDbLine
 10
20.75650518326515
 20
16.55911933014177
 30
0.0
 11
21.24965925358294
 21
17.05227340045955
 31
0.0
  0
LINE
  5
489
330
1F
100
AcDbEntity
  8
0
100
AcDbLine
 10
14.92807685614237
 20
10.80564432182475
 30
0.0
 11
15.4915542682904
 21
11.36912173397278
 31
0.0
  0
LINE
  5
48A
330
1F
100
AcDbEntity
  8
0
100
AcDbLine
 10
19.84166166512248
 20
15.71922913080486
 30
0.0
 11
19.94968503577178
 21
15.82725250145416
 31
0.0
  0
LINE
  5
48B
330
1F
100
AcDbEntity
  8
0
100
AcDbLine
 10
20.6949590231001
 20
16.57252648878248
 30
0.0
 11
21.19147418170908
 21
17.06904164739147
 31
0.0
  0
LINE
  5
48C
330
1F
100
AcDbEntity
  8
0
100
AcDbLine
 10
14.91133774678254
 20
10.8638585312707
 30
0.0
 11
15.48024368415804
 21
11.4327644686462
 31
0.0
  0
LINE
  5
48D
330
1F
100
AcDbEntity
  8
0
100
AcDbLine
 10
20.63269618654331
 20
16.58521697103147
 30
0.0
 11
21.13274330193982
 21
17.08526408642798
 31
0.0
  0
LINE
  5
48E
330
1F
100
AcDbEntity
  8
0
100
AcDbLine
 10
14.89517468121345
 20
10.92264878450739
 30
0.0
 11
15.46978941413333
 21
11.49726351742726
 31
0.0
  0
LINE
  5
48F
330
1F
100
AcDbEntity
  8
0
100
AcDbLine
 10
20.56976284312738
 20
16.59723694642131
 30
0.0
 11
21.07340687078264
 21
17.10088097407657
 31
0.0
  0
LINE
  5
490
330
1F
100
AcDbEntity
  8
0
100
AcDbLine
 10
14.87965662260484
 20
10.98208404470454
 30
0.0
 11
15.46022070799567
 21
11.56264813009538
 31
0.0
  0
LINE
  5
491
330
1F
100
AcDbEntity
  8
0
100
AcDbLine
 10
20.50614368630714
 20
16.60857110840684
 30
0.0
 11
21.01339739774432
 21
17.11582481984402
 31
0.0
  0
LINE
  5
492
330
1F
100
AcDbEntity
  8
0
100
AcDbLine
 10
14.86485266184023
 20
11.04223340274571
 30
0.0
 11
15.45156394117597
 21
11.62894468208146
 31
0.0
  0
LINE
  5
493
330
1F
100
AcDbEntity
  8
0
100
AcDbLine
 10
20.44168774772641
 20
16.61906848863189
 30
0.0
 11
20.9526533284997
 21
17.13003406940518
 31
0.0
  0
LINE
  5
494
330
1F
100
AcDbEntity
  8
0
100
AcDbLine
 10
14.85079396410008
 20
11.10312802381134
 30
0.0
 11
15.44379775493341
 21
11.69613181464467
 31
0.0
  0
LINE
  5
495
330
1F
100
AcDbEntity
  8
0
100
AcDbLine
 10
20.37631064489656
 20
16.62864470460781
 30
0.0
 11
20.89118206162571
 21
17.14351612133697
 31
0.0
  0
LINE
  5
496
330
1F
100
AcDbEntity
  8
0
100
AcDbLine
 10
14.83744960485474
 20
11.16473698337177
 30
0.0
 11
15.43694087041492
 21
11.76422824893195
 31
0.0
  0
LINE
  5
497
330
1F
100
AcDbEntity
  8
0
100
AcDbLine
 10
20.31000986424865
 20
16.63729724276568
 30
0.0
 11
20.82902289870151
 21
17.15631027721854
 31
0.0
  0
LINE
  5
498
330
1F
100
AcDbEntity
  8
0
100
AcDbLine
 10
14.82476864246023
 20
11.22700933978303
 30
0.0
 11
15.43074436046975
 21
11.83298505779255
 31
0.0
  0
LINE
  5
499
330
1F
100
AcDbEntity
  8
0
100
AcDbLine
 10
20.24279516718889
 20
16.6450358645117
 30
0.0
 11
20.76622554869229
 21
17.16846624601509
 31
0.0
  0
LINE
  5
49A
330
1F
100
AcDbEntity
  8
0
100
AcDbLine
 10
14.81270537917264
 20
11.28989939530122
 30
0.0
 11
15.4253220481558
 21
11.90251606428437
 31
0.0
  0
LINE
  5
49B
330
1F
100
AcDbEntity
  8
0
100
AcDbLine
 10
20.17467784150196
 20
16.65187185763054
 30
0.0
 11
20.70282635000731
 21
17.18002036613588
 31
0.0
  0
LINE
  5
49C
330
1F
100
AcDbEntity
  8
0
100
AcDbLine
 10
14.80125754754205
 20
11.35340488247641
 30
0.0
 11
15.42086383189656
 21
11.97301116683091
 31
0.0
  0
LINE
  5
49D
330
1F
100
AcDbEntity
  8
0
100
AcDbLine
 10
20.10558561742383
 20
16.65773295235818
 30
0.0
 11
20.63880983340792
 21
17.19095716834227
 31
0.0
  0
LINE
  5
49E
330
1F
100
AcDbEntity
  8
0
100
AcDbLine
 10
14.7904866677911
 20
11.41758732153123
 30
0.0
 11
15.41755553199403
 21
12.04465618573415
 31
0.0
  0
LINE
  5
49F
330
1F
100
AcDbEntity
  8
0
100
AcDbLine
 10
20.03548106673741
 20
16.66258172047754
 30
0.0
 11
20.57412370170238
 21
17.20122435544251
 31
0.0
  0
LINE
  5
4A0
330
1F
100
AcDbEntity
  8
0
100
AcDbLine
 10
14.78046894611156
 20
11.48252291865746
 30
0.0
 11
15.41545531131263
 21
12.11750928385853
 31
0.0
  0
LINE
  5
4A1
330
1F
100
AcDbEntity
  8
0
100
AcDbLine
 10
19.96423297502567
 20
16.66628694757156
 30
0.0
 11
20.50870919501946
 21
17.21076316756536
 31
0.0
  0
LINE
  5
4A2
330
1F
100
AcDbEntity
  8
0
100
AcDbLine
 10
14.77128157364735
 20
11.54828886499902
 30
0.0
 11
15.41424106183016
 21
12.19124835318183
 31
0.0
  0
LINE
  5
4A3
330
1F
100
AcDbEntity
  8
0
100
AcDbLine
 10
19.89174946791863
 20
16.6687567592703
 30
0.0
 11
20.44250865034011
 21
17.21951594169179
 31
0.0
  0
LINE
  5
4A4
330
1F
100
AcDbEntity
  8
0
100
AcDbLine
 10
14.76294607741399
 20
11.61490668757144
 30
0.0
 11
15.41355432601918
 21
12.26551493617663
 31
0.0
  0
LINE
  5
4A5
330
1F
100
AcDbEntity
  8
0
100
AcDbLine
 10
19.81824273672787
 20
16.67020334688532
 30
0.0
 11
20.37548660811546
 21
17.2274472182729
 31
0.0
  0
LINE
  5
4A6
330
1F
100
AcDbEntity
  8
0
100
AcDbLine
 10
14.75545452323139
 20
11.68236845219461
 30
0.0
 11
15.41436324604295
 21
12.34127717500617
 31
0.0
  0
LINE
  5
4A7
330
1F
100
AcDbEntity
  8
0
100
AcDbLine
 10
19.74416718634251
 20
16.67108111530573
 30
0.0
 11
20.30764646505159
 21
17.23456039401481
 31
0.0
  0
LINE
  5
4A8
330
1F
100
AcDbEntity
  8
0
100
AcDbLine
 10
14.74878896972828
 20
11.75065621749727
 30
0.0
 11
15.41571627000001
 21
12.41758351776901
 31
0.0
  0
LINE
  5
4A9
330
1F
100
AcDbEntity
  8
0
100
AcDbLine
 10
19.66800534436405
 20
16.66987259213305
 30
0.0
 11
20.23903113403387
 21
17.24089838180287
 31
0.0
  0
LINE
  5
4AA
330
1F
100
AcDbEntity
  8
0
100
AcDbLine
 10
14.74297737854923
 20
11.819797945124
 30
0.0
 11
15.41817134640187
 21
12.49499191297664
 31
0.0
  0
LINE
  5
4AB
330
1F
100
AcDbEntity
  8
0
100
AcDbLine
 10
19.59098429069389
 20
16.66780485726866
 30
0.0
 11
20.16960581415422
 21
17.24642638072899
 31
0.0
  0
LINE
  5
4AC
330
1F
100
AcDbEntity
  8
0
100
AcDbLine
 10
14.73803158567852
 20
11.88980547105906
 30
0.0
 11
15.42225009022654
 21
12.57402397560708
 31
0.0
  0
LINE
  5
4AD
330
1F
100
AcDbEntity
  8
0
100
AcDbLine
 10
19.51343187224334
 20
16.66520575762388
 30
0.0
 11
20.09933800540964
 21
17.25111189079019
 31
0.0
  0
LINE
  5
4AE
330
1F
100
AcDbEntity
  8
0
100
AcDbLine
 10
14.73400138587771
 20
11.96072859006402
 30
0.0
 11
15.42783363682783
 21
12.65456084101415
 31
0.0
  0
LINE
  5
4AF
330
1F
100
AcDbEntity
  8
0
100
AcDbLine
 10
19.43485463404589
 20
16.66158183823221
 30
0.0
 11
20.02818456854911
 21
17.25491177273543
 31
0.0
  0
LINE
  5
4B0
330
1F
100
AcDbEntity
  8
0
100
AcDbLine
 10
14.7309449913669
 20
12.032625514359
 30
0.0
 11
15.43484240302618
 21
12.73652292601828
 31
0.0
  0
LINE
  5
4B1
330
1F
100
AcDbEntity
  8
0
100
AcDbLine
 10
19.35500286865328
 20
16.65668339164537
 30
0.0
 11
19.95609154098839
 21
17.25777206398048
 31
0.0
  0
LINE
  5
4B2
330
1F
100
AcDbEntity
  8
0
100
AcDbLine
 10
14.72878853580845
 20
12.10542237760631
 30
0.0
 11
15.44303237135968
 21
12.81966621315755
 31
0.0
  0
LINE
  5
4B3
330
1F
100
AcDbEntity
  8
0
100
AcDbLine
 10
19.27323881307051
 20
16.64987265486837
 30
0.0
 11
19.8831672473489
 21
17.25980108914677
 31
0.0
  0
LINE
  5
4B4
330
1F
100
AcDbEntity
  8
0
100
AcDbLine
 10
14.7272767492854
 20
12.17886390988904
 30
0.0
 11
15.45283261390417
 21
12.90441977450781
 31
0.0
  0
LINE
  5
4B5
330
1F
100
AcDbEntity
  8
0
100
AcDbLine
 10
19.18935871839905
 20
16.64094587900269
 30
0.0
 11
19.80965895067495
 21
17.26124611127859
 31
0.0
  0
LINE
  5
4B6
330
1F
100
AcDbEntity
  8
0
100
AcDbLine
 10
14.72611388830079
 20
12.2526543677102
 30
0.0
 11
15.46441572358767
 21
12.99095620299709
 31
0.0
  0
LINE
  5
4B7
330
1F
100
AcDbEntity
  8
0
100
AcDbLine
 10
19.10295465863749
 20
16.6294951380469
 30
0.0
 11
19.73583584952638
 21
17.26237632893579
 31
0.0
  0
LINE
  5
4B8
330
1F
100
AcDbEntity
  8
0
100
AcDbLine
 10
14.727002479761
 20
12.32849627797619
 30
0.0
 11
15.4784185654566
 21
13.07991236367179
 31
0.0
  0
LINE
  5
4B9
330
1F
100
AcDbEntity
  8
0
100
AcDbLine
 10
19.01424742855182
 20
16.61574122676701
 30
0.0
 11
19.65999091492706
 21
17.26148471314225
 31
0.0
  0
LINE
  5
4BA
330
1F
100
AcDbEntity
  8
0
100
AcDbLine
 10
14.72847225516749
 20
12.40491937218845
 30
0.0
 11
15.4948695510453
 21
13.17131666806626
 31
0.0
  0
LINE
  5
4BB
330
1F
100
AcDbEntity
  8
0
100
AcDbLine
 10
18.92315153199311
 20
16.59959864901407
 30
0.0
 11
19.5835678201949
 21
17.26001493721587
 31
0.0
  0
LINE
  5
4BC
330
1F
100
AcDbEntity
  8
0
100
AcDbLine
 10
14.73062072410573
 20
12.48202115993247
 30
0.0
 11
15.5140708079795
 21
13.26547124380624
 31
0.0
  0
LINE
  5
4BD
330
1F
100
AcDbEntity
  8
0
100
AcDbLine
 10
18.82939319293921
 20
16.58079362876595
 30
0.0
 11
19.50646603299411
 21
17.25786646882084
 31
0.0
  0
LINE
  5
4BE
330
1F
100
AcDbEntity
  8
0
100
AcDbLine
 10
14.73387666285432
 20
12.56023041748683
 30
0.0
 11
15.53606029151706
 21
13.36241404614957
 31
0.0
  0
LINE
  5
4BF
330
1F
100
AcDbEntity
  8
0
100
AcDbLine
 10
18.73324598075817
 20
16.55959973539068
 30
0.0
 11
19.4282567777187
 21
17.25461053235122
 31
0.0
  0
LINE
  5
4C0
330
1F
100
AcDbEntity
  8
0
100
AcDbLine
 10
14.73844030888686
 20
12.63974738232515
 30
0.0
 11
15.56075384638718
 21
13.46206091982547
 31
0.0
  0
LINE
  5
4C1
330
1F
100
AcDbEntity
  8
0
100
AcDbLine
 10
18.63381521839178
 20
16.53512229183006
 30
0.0
 11
19.34873981552852
 21
17.2500468889668
 31
0.0
  0
LINE
  5
4C2
330
1F
100
AcDbEntity
  8
0
100
AcDbLine
 10
14.74433883607523
 20
12.72059922831929
 30
0.0
 11
15.5886141363824
 21
13.56487452862646
 31
0.0
  0
LINE
  5
4C3
330
1F
100
AcDbEntity
  8
0
100
AcDbLine
 10
18.53112582821473
 20
16.50738622045879
 30
0.0
 11
19.26788796897289
 21
17.24414836121695
 31
0.0
  0
LINE
  5
4C4
330
1F
100
AcDbEntity
  8
0
100
AcDbLine
 10
14.75168926629102
 20
12.80290297734085
 30
0.0
 11
15.62041999697848
 21
13.67163370802831
 31
0.0
  0
LINE
  5
4C5
330
1F
100
AcDbEntity
  8
0
100
AcDbLine
 10
18.42393254645688
 20
16.47514625750671
 30
0.0
 11
19.18558421186852
 21
17.23679792291835
 31
0.0
  0
LINE
  5
4C6
330
1F
100
AcDbEntity
  8
0
100
AcDbLine
 10
14.76039187421318
 20
12.88655890406878
 30
0.0
 11
15.65702438845505
 21
13.78319141831066
 31
0.0
  0
LINE
  5
4C7
330
1F
100
AcDbEntity
  8
0
100
AcDbLine
 10
18.311754517542
 20
16.4379215473976
 30
0.0
 11
19.10192827413983
 21
17.22809530399544
 31
0.0
  0
LINE
  5
4C8
330
1F
100
AcDbEntity
  8
0
100
AcDbLine
 10
14.7708642613324
 20
12.97198460999378
 30
0.0
 11
15.69938144784084
 21
13.90050179650222
 31
0.0
  0
LINE
  5
4C9
330
1F
100
AcDbEntity
  8
0
100
AcDbLine
 10
18.19347250292301
 20
16.39459285158439
 30
0.0
 11
19.0165025712476
 21
17.21762291990898
 31
0.0
  0
LINE
  5
4CA
330
1F
100
AcDbEntity
  8
0
100
AcDbLine
 10
14.78321503396371
 20
13.05928870143086
 30
0.0
 11
15.74932513241403
 21
14.02539879988118
 31
0.0
  0
LINE
  5
4CB
330
1F
100
AcDbEntity
  8
0
100
AcDbLine
 10
18.0673480664602
 20
16.34342173392735
 30
0.0
 11
18.9291985155005
 21
17.20527218296765
 31
0.0
  0
LINE
  5
4CC
330
1F
100
AcDbEntity
  8
0
100
AcDbLine
 10
14.7975257213374
 20
13.14855270761032
 30
0.0
 11
15.80954049979723
 21
14.16056748607016
 31
0.0
  0
LINE
  5
4CD
330
1F
100
AcDbEntity
  8
0
100
AcDbLine
 10
17.93102691171678
 20
16.28205389798972
 30
0.0
 11
18.83993455310159
 21
17.19096153937451
 31
0.0
  0
LINE
  5
4CE
330
1F
100
AcDbEntity
  8
0
100
AcDbLine
 10
14.81389559291096
 20
13.23987589798966
 30
0.0
 11
15.88185281787986
 21
14.30783312295857
 31
0.0
  0
LINE
  5
4CF
330
1F
100
AcDbEntity
  8
0
100
AcDbLine
 10
17.7816197158946
 20
16.2076000209733
 30
0.0
 11
18.74861131856739
 21
17.17459162364609
 31
0.0
  0
LINE
  5
4D0
330
1F
100
AcDbEntity
  8
0
100
AcDbLine
 10
14.83212896681076
 20
13.33306259069524
 30
0.0
 11
15.97238159698616
 21
14.47331522087064
 31
0.0
  0
LINE
  5
4D1
330
1F
100
AcDbEntity
  8
0
100
AcDbLine
 10
17.61370036182034
 20
16.11463398570481
 30
0.0
 11
18.65542443682102
 21
17.1563580607055
 31
0.0
  0
LINE
  5
4D2
330
1F
100
AcDbEntity
  8
0
100
AcDbLine
 10
14.85262237638781
 20
13.42850931907806
 30
0.0
 11
16.08863819548327
 21
14.66452513817352
 31
0.0
  0
LINE
  5
4D3
330
1F
100
AcDbEntity
  8
0
100
AcDbLine
 10
17.4173064919063
 20
15.99319343459655
 30
0.0
 11
18.55997761386822
 21
17.13586455655847
 31
0.0
  0
LINE
  5
4D4
330
1F
100
AcDbEntity
  8
0
100
AcDbLine
 10
14.87605291008416
 20
13.52689317158018
 30
0.0
 11
16.26937710730151
 21
14.92021736879754
 31
0.0
  0
LINE
  5
4D5
330
1F
100
AcDbEntity
  8
0
100
AcDbLine
 10
17.16156845731507
 20
15.8124087188111
 30
0.0
 11
18.46159429419664
 21
17.11243455569267
 31
0.0
  0
LINE
  5
4D6
330
1F
100
AcDbEntity
  8
0
100
AcDbLine
 10
14.9027115490056
 20
13.6285051293074
 30
0.0
 11
18.35998315719869
 21
17.08577673750049
 31
0.0
  0
LINE
  5
4D7
330
1F
100
AcDbEntity
  8
0
100
AcDbLine
 10
14.93265269923342
 20
13.73339959834099
 30
0.0
 11
18.25508752182833
 21
17.05583442093591
 31
0.0
  0
LINE
  5
4D8
330
1F
100
AcDbEntity
  8
0
100
AcDbLine
 10
14.96603550936718
 20
13.84173572728053
 30
0.0
 11
18.14674726189872
 21
17.02244747981207
 31
0.0
  0
LINE
  5
4D9
330
1F
100
AcDbEntity
  8
0
100
AcDbLine
 10
15.00383689771066
 20
13.95449043442978
 30
0.0
 11
18.03399630788276
 21
16.98464984460188
 31
0.0
  0
LINE
  5
4DA
330
1F
100
AcDbEntity
  8
0
100
AcDbLine
 10
15.0475788952218
 20
14.0731857507467
 30
0.0
 11
17.91532036899324
 21
16.94092722451813
 31
0.0
  0
LINE
  5
4DB
330
1F
100
AcDbEntity
  8
0
100
AcDbLine
 10
15.09833549282414
 20
14.19889566715481
 30
0.0
 11
17.78957979549808
 21
16.89013996982875
 31
0.0
  0
LINE
  5
4DC
330
1F
100
AcDbEntity
  8
0
100
AcDbLine
 10
15.15664377273777
 20
14.33215726587421
 30
0.0
 11
17.65625057205273
 21
16.83176406518918
 31
0.0
  0
LINE
  5
4DD
330
1F
100
AcDbEntity
  8
0
100
AcDbLine
 10
15.22496491892008
 20
14.4754317308623
 30
0.0
 11
17.51329075427621
 21
16.76375756621842
 31
0.0
  0
LINE
  5
4DE
330
1F
100
AcDbEntity
  8
0
100
AcDbLine
 10
15.30592258019071
 20
14.63134271093871
 30
0.0
 11
17.3569082301247
 21
16.6823283608727
 31
0.0
  0
LINE
  5
4DF
330
1F
100
AcDbEntity
  8
0
100
AcDbLine
 10
15.40418019591948
 20
14.80455364547325
 30
0.0
 11
17.1804068969729
 21
16.58078034652667
 31
0.0
  0
LINE
  5
4E0
330
1F
100
AcDbEntity
  8
0
100
AcDbLine
 10
15.53709946900319
 20
15.01242623736273
 30
0.0
 11
16.97544949249039
 21
16.45077626084993
 31
0.0
  0
LINE
  5
4E1
330
1F
100
AcDbEntity
  8
0
100
AcDbLine
 10
15.73512663620758
 20
15.2854067233729
 30
0.0
 11
16.70535468328467
 21
16.25563477044998
 31
0.0
  0
ENDSEC
  0
SECTION
  2
OBJECTS
  0
DICTIONARY
  5
C
330
0
100
AcDbDictionary
281
     1
  3
ACAD_COLOR
350
6C
  3
ACAD_GROUP
350
D
  3
ACAD_LAYOUT
350
1A
  3
ACAD_MATERIAL
350
6B
  3
ACAD_MLINESTYLE
350
17
  3
ACAD_PLOTSETTINGS
350
19
  3
ACAD_PLOTSTYLENAME
350
E
  3
ACAD_TABLESTYLE
350
92
  3
AcDbVariableDictionary
350
59
  0
DICTIONARY
  5
6C
102
{ACAD_REACTORS
330
C
102
}
330
C
100
AcDbDictionary
281
     1
  0
DICTIONARY
  5
D
102
{ACAD_REACTORS
330
C
102
}
330
C
100
AcDbDictionary
281
     1
  0
DICTIONARY
  5
1A
102
{ACAD_REACTORS
330
C
102
}
330
C
100
AcDbDictionary
281
     1
  3
Layout1
350
74
  3
Layout2
350
9C
  3
Model
350
22
  0
DICTIONARY
  5
6B
102
{ACAD_REACTORS
330
C
102
}
330
C
100
AcDbDictionary
281
     1
  0
DICTIONARY
  5
17
102
{ACAD_REACTORS
330
C
102
}
330
C
100
AcDbDictionary
281
     1
  3
Standard
350
18
  0
DICTIONARY
  5
19
102
{ACAD_REACTORS
330
C
102
}
330
C
100
AcDbDictionary
281
     1
  0
ACDBDICTIONARYWDFLT
  5
E
102
{ACAD_REACTORS
330
C
102
}
330
C
100
AcDbDictionary
281
     1
  3
Normal
350
F
100
AcDbDictionaryWithDefault
340
F
  0
DICTIONARY
  5
92
102
{ACAD_REACTORS
330
C
102
}
330
C
100
AcDbDictionary
281
     1
  0
DICTIONARY
  5
59
102
{ACAD_REACTORS
330
C
102
}
330
C
100
AcDbDictionary
281
     1
  0
LAYOUT
  5
74
102
{ACAD_REACTORS
330
1A
102
}
330
1A
100
AcDbPlotSettings
  1

  2
\\ADSCCNDC1\hq601xrx1
  4

  6

 40
0.0
 41
0.0
 42
0.0
 43
0.0
 44
0.0
 45
0.0
 46
0.0
 47
0.0
 48
0.0
 49
0.0
140
0.0
141
0.0
142
1.0
143
1.0
 70
   688
 72
     0
 73
     0
 74
     5
  7

 75
    16
 76
     0
 77
     2
 78
   300
147
1.0
148
0.0
149
0.0
100
AcDbLayout
  1
Layout1
 70
     1
 71
     1
 10
0.0
 20
0.0
 11
12.0
 21
9.0
 12
0.0
 22
0.0
 32
0.0
 14
0.0
 24
0.0
 34
0.0
 15
0.0
 25
0.0
 35
0.0
146
0.0
 13
0.0
 23
0.0
 33
0.0
 16
1.0
 26
0.0
 36
0.0
 17
0.0
 27
1.0
 37
0.0
 76
     0
330
73
  0
LAYOUT
  5
9C
102
{ACAD_REACTORS
330
1A
102
}
330
1A
100
AcDbPlotSettings
  1

  2
None
  4

  6

 40
0.0
 41
0.0
 42
0.0
 43
0.0
 44
0.0
 45
0.0
 46
0.0
 47
0.0
 48
0.0
 49
0.0
140
0.0
141
0.0
142
1.0
143
1.0
 70
   688
 72
     0
 73
     0
 74
     5
  7

 75
    16
 76
     0
 77
     2
 78
   300
147
1.0
148
0.0
149
0.0
100
AcDbLayout
  1
Layout2
 70
     1
 71
     2
 10
0.0
 20
0.0
 11
12.0
 21
9.0
 12
0.0
 22
0.0
 32
0.0
 14
1.000000000000000E+20
 24
1.000000000000000E+20
 34
1.000000000000000E+20
 15
-1.000000000000000E+20
 25
-1.000000000000000E+20
 35
-1.000000000000000E+20
146
0.0
 13
0.0
 23
0.0
 33
0.0
 16
1.0
 26
0.0
 36
0.0
 17
0.0
 27
1.0
 37
0.0
 76
     0
330
9B
  0
LAYOUT
  5
22
102
{ACAD_REACTORS
330
1A
102
}
330
1A
100
AcDbPlotSettings
  1

  2
none_device
  4
Letter_(8.50_x_11.00_Inches)
  6

 40
6.349999904632568
 41
6.349999904632568
 42
6.350006103515625
 43
6.350006103515625
 44
215.8999938964844
 45
279.3999938964844
 46
0.0
 47
0.0
 48
0.0
 49
0.0
140
0.0
141
0.0
142
1.0
143
3.560208697428377
 70
 11952
 72
     0
 73
     1
 74
     0
  7

 75
     0
 76
     0
 77
     2
 78
   300
147
0.28088241027059
148
0.1311165230791651
149
0.096403374003771
100
AcDbLayout
  1
Model
 70
     1
 71
     0
 10
0.0
 20
0.0
 11
12.0
 21
9.0
 12
0.0
 22
0.0
 32
0.0
 14
14.72598008109453
 24
7.262363086538221
 34
0.0
 15
24.82240953188269
 25
17.26250711267273
 35
0.0
146
0.0
 13
0.0
 23
0.0
 33
0.0
 16
1.0
 26
0.0
 36
0.0
 17
0.0
 27
1.0
 37
0.0
 76
     0
330
1F
  0
MLINESTYLE
  5
18
102
{ACAD_REACTORS
330
17
102
}
330
17
100
AcDbMlineStyle
  2
Standard
 70
     0
  3

 62
   256
 51
90.0
 52
90.0
 71
     2
 49
0.5
 62
   256
  6
BYLAYER
 49
-0.5
 62
   256
  6
BYLAYER
  0
ACDBPLACEHOLDER
  5
F
102
{ACAD_REACTORS
330
E
102
}
330
E
  0
ENDSEC
  0
EOF
